Amigo, Attaque 77 (bajo)

Autor: Anónimo | 36571 visualizaciones



Disfrutenla

G||------|-------------------------|--------------------------|
D||------|-------------------------|--------------------------|
A||------|--2----2--2--2--2--2--2--|--2--2--2--2--2--2--2--2--|
E||------|-------------------------|--------------------------|



-------------------------|--------------------------|-------------------------|
-------------------------|--------------------------|-------------------------|
-------------------------|--------------------------|-------------------------|
--3----3--3--3--3--3--3--|--3--3--3--3--3--3--3--3--|--5----5--5--5--5--5--5--|



--------------------------|-------------------------|
--------------------------|-------------------------|
-----------------4--7--4--|--2----2--2--2--2--2--2/-|
--5--5--5--5--5-----------|-------------------------|



------------------------------|-------------------------|
------------------------------|-------------4--2-----4--|
--12----12--12/-12/-2/-12/-2--|--2----2--2--------2-----|
------------------------------|-------------------------|



------------------------|-------------------------|------------------------|
------4--4--4--4--------|-------------------------|------------------------|
------------------2-----|-------------5--4-----5--|------5--5--5--5--5--5--|
---------------------7/-|--3----3--3--------3-----|------------------------|



-------------------------|--------------------------|-------------------------|
-------------------------|--------------------------|-------------------------|
-------------------------|-----------------0--4--0--|--2----2--2--2--2--2--2--|
--5----5--5--5--5--5--5--|--5--5--5--5--5-----------|-------------------------|



------------------|-------------------------|--------------------------|
------------------|-------------------------|--------------------------|
------------------|--2----2--2--2--2--2--2--|--2--2--2--2--2--2--2--2--|
------------------|-------------------------|--------------------------|



-------------------------|--------------------------|-------------------------|
-------------------------|--------------------------|-------------------------|
-------------------------|--------------------------|-------------------------|
--3----3--3--3--3--3--3--|--3--3--3--3--3--3--3--3--|--5----5--5--5--5--5--5--|



--------------------------|-------------------------|--------------------------|
--------------------------|-------------------------|--------------------------|
--------------------------|--5----5--5--5--5--5--5--|--5--5--5--5--5--5--5--5--|
--5--5--5--5--5--5--5--5--|-------------------------|--------------------------|



-------------------------|--------------------------|-------------------------|
-------------------------|--------------------------|-------------------------|
-------------------------|--------------------------|-------------------------|
--3----3--3--3--3--3--3--|--3--3--3--3--3--3--3--3--|--0----0--0--0--0--0--0--|



--------------------------|-------------------------|--------------------------|
--------------------------|-------------------------|--------------------------|
--------------------------|-------------------------|--------------------------|
--0--0--0--0--0--0--0--0--|--2----2--2--2--2--2--2--|--2--2--2--2--2--2--2--2--|



-------------------------|---------------------------|-------------------------|
-------------------------|---------------------------|-------------------------|
--2----2--2--2--2--2--2--|--2--2--2--2--2--2/-12/-2--|--2----2--2--2--2--2--2--|
-------------------------|---------------------------|-------------------------|



--------------------------|-------------------------|--------------------------|
--------------------------|-------------------------|--------------------------|
--2--2--2--2--2--2--2--2--|-------------------------|--------------------------|
--------------------------|--3----3--3--3--3--3--3--|--3--3--3--3--3--3--3--3--|



-------------------------|--------------------------|-------------------------|
-------------------------|--------------------------|-------------------------|
-------------------------|--------------------------|--5----5--5--5--5--5--5--|
--5----5--5--5--5--5--5--|--5--5--5--5--5--5--5--5--|-------------------------|



--------------------------|-------------------------|--------------------------|
--------------------------|-------------------------|--------------------------|
--5--5--5--5--5--5--5--5--|-------------------------|--------------------------|
--------------------------|--3----3--3--3--3--3--3--|--3--3--3--3--3--3--3--3--|



-------------------------|--------------------------|-------------------------|
-------------------------|--------------------------|-------------------------|
-------------------------|--------------------------|-------------------------|
--0----0--0--0--0--0--0--|--0--0--0--0--0--0--0--0--|--2----2--2--2--2--2--2--|



--------------------------|-------------------------|--------------------------|
--------------------------|-------------------------|--------------------------|
--------------------------|--2----2--2--2--2--2--2--|--2--2--2--2--2--2--2--2--|
--2--2--2--2--2--2--2--2--|-------------------------|--------------------------|



-------------------------|--------------------------|-------------------------|
-------------------------|-----------------0--------|-------------------------|
--2----2--2--2--2--2--2--|--2--2--2--2--2-----2--0--|-------------------------|
-------------------------|--------------------------|--3----3--3--3--3--3--3--|



--------------------------|-------------------------|--------------------------|
--------------------------|-------------------------|--------------------------|
--------------------------|-------------------------|-----------------4--2-----|
--3--3--3--3--3--0--3--0--|--5----5--5--5--5--5--5--|--5--5--5--5--5--------5--|



-------------------------|------------------|-------------------------|
-------------------------|------------------|-------------------------|
--2----2--2--2--2--2--2--|------------------|--2----2--2--2--2--2--2--|
-------------------------|------------------|-------------------------|



--------------------------|-------------------------|--------------------------|
--------------------------|-------------------------|--------------------------|
--2--2--2--2--2--2--2--2--|-------------------------|--------------------------|
--------------------------|--3----3--3--3--3--3--3--|--3--3--3--3--3--3--3--3--|



-------------------------|--------------------------|-------------------------|
-------------------------|--------------------------|-------------------------|
-------------------------|--------------------------|--5----5--5--5--5--5--5--|
--5----5--5--5--5--5--5--|--5--5--5--5--5--5--5--5--|-------------------------|



--------------------------|-------------------------|--------------------------|
--------------------------|-------------------------|--------------------------|
--5--5--5--5--5--5--5--5--|-------------------------|--------------------------|
--------------------------|--3----3--3--3--3--3--3--|--3--3--3--3--3--3--3--3--|



-------------------------|--------------------------|-------------------------|
-------------------------|--------------------------|-------------------------|
-------------------------|--------------------------|-------------------------|
--0----0--0--0--0--0--0--|--0--0--0--0--0--0--0--0--|--2----2--2--2--2--2--2--|



--------------------------|-------------------------|
--------------------------|-------------------------|
--------------------------|--2----2--2--2--2--2--2--|
--2--2--2--2--2--2--2--2--|-------------------------|



---------------------------|-------------------------|
---------------------------|-------------------------|
--2--2--2--2--2--2/-12/-2--|--2----2--2--2--2--2--2--|
---------------------------|-------------------------|



--------------------------|-------------------------|--------------------------|
--------------------------|-------------------------|--------------------------|
--2--2--2--2--2--2--2--2--|-------------------------|--------------------------|
--------------------------|--3----3--3--3--3--3--3--|--3--3--3--3--3--3--3--3--|



-------------------------|--------------------------|-------------------------|
-------------------------|--------------------------|-------------------------|
-------------------------|--------------------------|--5----5--5--5--5--5--5--|
--5----5--5--5--5--5--5--|--5--5--5--5--5--5--5--5--|-------------------------|



--------------------------|-------------------------|--------------------------|
--------------------------|-------------------------|--------------------------|
--5--5--5--5--5--5--5--5--|-------------------------|--------------------------|
--------------------------|--3----3--3--3--3--3--3--|--3--3--3--3--3--3--3--3--|



-------------------------|--------------------------|-------------------------|
-------------------------|--------------------------|-------------------------|
-------------------------|--------------------------|-------------------------|
--0----0--0--0--0--0--0--|--0--0--0--0--0--0--0--0--|--2----2--2--2--2--2--2--|



--------------------------|-------------------------|--------------------------|
--------------------------|-------------------------|--------------------------|
--------------------------|--2----2--2--2--2--2--2--|--2--2--2--2--2--2--2--2--|
--2--2--2--2--2--2--2--2--|-------------------------|--------------------------|



-------------------------|--------------------------|-------------------------|
-------------------------|--------------------------|-------------------------|
--2----2--2--2--2--2--2--|--2--2--2--2--2--2--2--2--|-------------------------|
-------------------------|--------------------------|--3----3--3--3--3--3--3--|



--------------------------|-------------------------|--------------------------|
--------------------------|-------------------------|--------------------------|
--------------------------|-------------------------|-----------------4--2-----|
--3--3--3--3--3--3--3--3--|--5----5--5--5--5--5--5--|--5--5--5--5--5--------5--|



-------------------------|----------------------|-------------------------|
-------------------------|-------0----2----0----|-------------------------|
--2----2--2--2--2--2--2--|--2-------------------|--2----2--2--2--2--2--2--|
-------------------------|----------------------|-------------------------|



--------------------------|-------------------------|--------------------------|
--------------------------|-------------------------|--------------------------|
--2--2--2--2--2--2--2--2--|-------------------------|--------------------------|
--------------------------|--3----3--3--3--3--3--3--|--3--3--3--3--3--3--3--3--|



-------------------------|--------------------------|-------------------------|
-------------------------|--------------------------|-------------------------|
-------------------------|--------------------------|--2----2--2--2--2--2--2--|
--5----5--5--5--5--5--5--|--5--5--5--5--5--5--5--5--|-------------------------|



--------------------------|-------------------------|--------------------------|
--------------------------|-------------------------|--------------------------|
--2--2--2--2--2--2--2--2--|--2----2--2--2--2--2--2--|--2--2--2--2--2--2--2--2--|
--------------------------|-------------------------|--------------------------|



-------------------------|--------------------------|-------------------------|
-------------------------|--------------------------|-------------------------|
-------------------------|--------------------------|-------------------------|
--3----3--3--3--3--3--3--|--3--3--3--3--3--3--3--3--|--5----5--5--5--5--5--5--|



--------------------------|-------------------------|--------------------------|
--------------------------|-------------------------|--------------------------|
--------------------------|--2----2--2--2--2--2--2--|--2--2--2--2--2--2--2--2--|
--5--5--5--5--5--5--5--5--|-------------------------|--------------------------|



-------------------------|--------------------------|-------------------------|
-------------------------|--------------------------|-------------------------|
--2----2--2--2--2--2--2--|--2--2--2--2--2--2--2--2--|-------------------------|
-------------------------|--------------------------|--3----3--3--3--3--3--3--|



--------------------------|-------------------------|--------------------------|
--------------------------|-------------------------|--------------------------|
--------------------------|-------------------------|--------------------------|
--3--3--3--3--3--3--3--3--|--5----5--5--5--5--5--5--|--5--5--5--5--5--2--5--2--|



-------------------------|--------------------------|
-------------------------|--------------------------|
--2----2--2--2--2--2--2--|--2--2--2--2--2-----2-----|
-------------------------|-----------------3-----3--|



|--------------------------|-------------------------|-------------------------|
|*-------------------------|-------------------------|-------------------------|
|*--2----2--2--2--2--2--2--|--2----2--2--2--2--2--2--|--7----7--7--7--7--7--7--|
|--------------------------|-------------------------|-------------------------|



--------------------------|-------------------------|-------------------------|
--------------------------|--4----4--4--4--4--4--4--|--4----4--4--4--4--4--4--|
--7--7--7--7--7--7--7--7--|-------------------------|-------------------------|
--------------------------|-------------------------|-------------------------|



-------------------------|---------------------------||
-------------------------|--------------------------*||
--2----2--2--2--2--2--2--|--2--2--2--2--2-----------*||
-------------------------|-----------------2--5--2---||



-------------------------|-------------------------|-------------------------|
-------------------------|-------------------------|-------------------------|
--2----2--2--2--2--2--2--|--2----2--2--2--2--2--2--|--7----7--7--7--7--7--7--|
-------------------------|-------------------------|-------------------------|



-------------------------|---------------------------4----|
-------------------------|--4----4----4----7----4---------|
--7----7--7--7--7--7--7--|--------------------------------|
-------------------------|--------------------------------|



--------------------------------|-------------------|------------------||
--7----4----7----4--------------|-------------------|------------------||
----------------------7----5----|--2----------------|------------------||
--------------------------------|-------------------|------------------||

Fuente original: LaCuerda
Colaborador original: Omar Garcia [[email protected]]





Calificar esta versión:
Aviso: Este fichero es trabajo propio de su transcriptor y representa su interpretación personal de la canción. El material contenido en esta página es para exclusivo uso privado, por lo que se prohibe su reproducción o retransmisión, así como su uso para fines comerciales.
Más versiones de Amigo, Attaque 77
Amigo
acordes
Amigo (ver 2)
acordes
Amigo (ver 3)
acordes
Amigo
tablatura
Amigo (ver 2)
tablatura
Amigo
bajo
Descubre más canciones de Attaque 77