15 Segundos, Attaque 77 (bajo)

Autor: Anónimo | 16619 visualizaciones

Yo nunca te miento yo te digo la verdad

G ----------------------------------------
D ----------------------------------------
A --------------3-3-----------------------
E --5-5----------------------3-3-----0-0--

  Yo nunca te miento yo te digo la verdad
G ----------------------------------------
D ----------------------------------------
A --------------3-3-----------------------
E -5-5------------------------3-3-----0-0--

  
  Yo nunca te miento yo te digo la verdad
G ----------------------------------------
D ----------------------------------------
A --------------3-3-----------------------
E -5-5------------------------3-3-----0-0--

  
  Yo nunca te miento yo te digo la verdad
G ----------------------------------------
D ----------------------------------------
A --------------3-3-----------------------
E -5-5------------------------3-3-----0-0--

  
 Vamos a coger .........pronto
G ------------------------------------
D ------------------------------------
A -2-2-2-2-2-2----------5-5-----------
E ------------------------------------

Vamos a coger .........pronto
G ------------------------------------
D ------------------------------------
A -2-2-2-2-2-2----------5-5-----------
E ------------------------------------

el tema termina con el acorde E
.-.-.-.-.-.-.-.-.-.-.-..-.-.-.-.-.-.-.-.-.
aguante attaque 77.....
silene bertelli te amo con toda el alma..pipio77

Fuente original: LaCuerda
Colaborador original: diego muller [apipio@hotmail.com]
Calificar esta versión:
Aviso: Este fichero es trabajo propio de su transcriptor y representa su interpretación personal de la canción. El material contenido en esta página es para exclusivo uso privado, por lo que se prohibe su reproducción o retransmisión, así como su uso para fines comerciales.
Más versiones de 15 Segundos, Attaque 77
15 Segundos
acordes
15 Segundos
bajo
15 Segundos
bateria
Descubre más canciones de Attaque 77