Bolero Falaz, Aterciopelados (bateria)

Autor: Anónimo | 25306 visualizaciones



Bolero Falaz


ESPERO QUE LES GUSTE, AQUI LO SEPARE POR COMPASES PARA QUE 
CHEQUEN EL ORDEN DE LA CANCION QUE ESTA COMPLETA.


--36-------------36---36------|
--49---42---42---42---42---42-|
------------40----------------|
------------------------------|
------------------------------|
------------------------------|



---------36-----------------|---36---36------------------|
----42---42---42---42---42--|---42---42---42---42---42---|
----40------------------40--|------------------40--------|
----------------------------|----------------------------|
----------------------------|----------------------------|
----------------------------|----------------------------|



--36-------------36---36------|---------36-----------------|
--46---42---42---42---42---42-|----42---42---42---42---42--|
--53--------40----------------|----40------------------40--|
------------------------------|----------------------------|
------------------------------|----------------------------|
------------------------------|----------------------------|



---36---36------------------|--36-------------36---36------|
---42---42---42---42---42---|--57---42---42---42---42---42-|
------------------40--------|------------40----------------|
----------------------------|------------------------------|
----------------------------|------------------------------|
----------------------------|------------------------------|



---------36-----------------|---36---36------------------|
----42---42---42---42---42--|---42---42---42---42---42---|
----40------------------40--|------------------40--------|
----------------------------|----------------------------|
----------------------------|----------------------------|
----------------------------|----------------------------|



--36-------------36---36------|---------36-----------------|
--42---42---42---42---42---42-|----42---42---42---42---42--|
------------40----------------|----40------------------40--|
------------------------------|----------------------------|
------------------------------|----------------------------|
------------------------------|----------------------------|



---36---36------------------||---36-------------36---36------|
---42---42---42---42---42---||---42---42---42---42---42---42-|
------------------40--------||*------------40----------------|
----------------------------||*------------------------------|
----------------------------||-------------------------------|
----------------------------||-------------------------------|



---------36-----------------|---36---36------------------|
----42---42---42---42---42--|---42---42---42---42---42---|
----40------------------40--|------------------40--------|
----------------------------|----------------------------|
----------------------------|----------------------------|
----------------------------|----------------------------|



--36-------------36---36------|---------36-----------------|
--42---42---42---42---42---42-|----42---42---42---42---42--|
------------40----------------|----40------------------40--|
------------------------------|----------------------------|
------------------------------|----------------------------|
------------------------------|----------------------------|



---36---36-------------------||---36-------------36---36------|
---42---42---42---42---42----||---49---42---42---42---42---42-|
------------------40---40---*||*------------40----------------|
-----------------------49---*||*------------------------------|
-----------------------------||-------------------------------|
-----------------------------||-------------------------------|



---------36-----------------|---36---36------------------|
----42---42---42---42---42--|---42---42---42---42---42---|
----40------------------40--|------------------40--------|
----------------------------|----------------------------|
----------------------------|----------------------------|
----------------------------|----------------------------|



--36-------------36---36------|---------36-----------------|
--55---42---42---42---42---42-|----42---42---42---42---42--|
------------40----------------|----40------------------40--|
------------------------------|----------------------------|
------------------------------|----------------------------|
------------------------------|----------------------------|



---36---36------------------|--36-------------36---36------|
---42---42---42---42---42---|--42---42---42---42---42---42-|
------------------40--------|--59--------40----------------|
----------------------------|------------------------------|
----------------------------|------------------------------|
----------------------------|------------------------------|



---------36-----------------|---36---36------------------|
----42---42---42---42---42--|---42---42---42---42---42---|
----40------------------40--|------------------40--------|
----------------------------|----------------------------|
----------------------------|----------------------------|
----------------------------|----------------------------|



--36-------------36---36------|---------36-----------------|
--42---42---42---42---42---42-|----42---42---42---42---42--|
------------40----------------|----40------------------40--|
------------------------------|----------------------------|
------------------------------|----------------------------|
------------------------------|----------------------------|



---36---36-------------------||--36-------------36---36------|
---42---42---42---42---42----||--49---42---42---42---42---42-|
------------------40--------*||------------40----------------|
----------------------------*||------------------------------|
-----------------------------||------------------------------|
-----------------------------||------------------------------|



---------36-----------------|---36---36------------------|
----42---42---42---42---42--|---42---42---42---42---42---|
----40------------------40--|------------------40--------|
----------------------------|----------------------------|
----------------------------|----------------------------|
----------------------------|----------------------------|



--36-------------36---36------|---------36-----------------|
--46---42---42---42---42---42-|----42---42---42---42---42--|
--53--------40----------------|----40------------------40--|
------------------------------|----------------------------|
------------------------------|----------------------------|
------------------------------|----------------------------|



---36---36------------------|--36-------------36---36------|
---42---42---42---42---42---|--57---42---42---42---42---42-|
------------------40--------|------------40----------------|
----------------------------|------------------------------|
----------------------------|------------------------------|
----------------------------|------------------------------|



---------36-----------------|---36---36------------------|
----42---42---42---42---42--|---42---42---42---42---42---|
----40------------------40--|------------------40--------|
----------------------------|----------------------------|
----------------------------|----------------------------|
----------------------------|----------------------------|



--36-------------36---36------|---------36-----------------|
--42---42---42---42---42---42-|----42---42---42---42---42--|
------------40----------------|----40------------------40--|
------------------------------|----------------------------|
------------------------------|----------------------------|
------------------------------|----------------------------|



---36---36------------------||---36-------------36---36------|
---42---42---42---42---42---||---42---42---42---42---42---42-|
------------------40--------||*------------40----------------|
----------------------------||*------------------------------|
----------------------------||-------------------------------|
----------------------------||-------------------------------|



---------36-----------------|---36---36------------------|
----42---42---42---42---42--|---42---42---42---42---42---|
----40------------------40--|------------------40--------|
----------------------------|----------------------------|
----------------------------|----------------------------|
----------------------------|----------------------------|



--36-------------36---36------|---------36-----------------|
--42---42---42---42---42---42-|----42---42---42---42---42--|
------------40----------------|----40------------------40--|
------------------------------|----------------------------|
------------------------------|----------------------------|
------------------------------|----------------------------|



---36---36-------------------||---36-------------36---36------|
---42---42---42---42---42----||---49---42---42---42---42---42-|
------------------40---40---*||*------------40----------------|
-----------------------49---*||*------------------------------|
-----------------------------||-------------------------------|
-----------------------------||-------------------------------|



---------36-----------------|---36---36------------------|
----42---42---42---42---42--|---42---42---42---42---42---|
----40------------------40--|------------------40--------|
----------------------------|----------------------------|
----------------------------|----------------------------|
----------------------------|----------------------------|



--36-------------36---36------|---------36-----------------|
--55---42---42---42---42---42-|----42---42---42---42---42--|
------------40----------------|----40------------------40--|
------------------------------|----------------------------|
------------------------------|----------------------------|
------------------------------|----------------------------|



---36---36------------------|--36-------------36---36------|
---42---42---42---42---42---|--42---42---42---42---42---42-|
------------------40--------|--59--------40----------------|
----------------------------|------------------------------|
----------------------------|------------------------------|
----------------------------|------------------------------|



---------36-----------------|---36---36------------------|
----42---42---42---42---42--|---42---42---42---42---42---|
----40------------------40--|------------------40--------|
----------------------------|----------------------------|
----------------------------|----------------------------|
----------------------------|----------------------------|



--36-------------36---36------|---------36-----------------|
--42---42---42---42---42---42-|----42---42---42---42---42--|
------------40----------------|----40------------------40--|
------------------------------|----------------------------|
------------------------------|----------------------------|
------------------------------|----------------------------|


                             2x
---36---36-------------------||--36----------------||
---42---42---42---42---42----||--49----------------||
------------------40--------*||--57----------------||
----------------------------*||--------------------||
-----------------------------||--------------------||
-----------------------------||--------------------||


PARA DUDAS Y/O COMENTARIOS - acorde_49@hotmail.com - 
anarchy_up@atame.org -

Fuente original: LaCuerda
Colaborador original: c|-|risti/- [acorde_49@hotmail.com]





Calificar esta versión:
Aviso: Este fichero es trabajo propio de su transcriptor y representa su interpretación personal de la canción. El material contenido en esta página es para exclusivo uso privado, por lo que se prohibe su reproducción o retransmisión, así como su uso para fines comerciales.
Más versiones de Bolero Falaz, Aterciopelados
Bolero Falaz
acordes
Bolero Falaz (ver 2)
acordes
Bolero Falaz
tablatura
Bolero Falaz
bajo
Bolero Falaz
bateria
Descubre más canciones de Aterciopelados