Luna Tucumana, Atahualpa Yupanqui (tablatura)

Autor: Anónimo | 26369 visualizaciones



ojala q sirva para algo por lo menos a mi y a gera no va de 10

Yo no le canto a la luna
1-|-----------------|
2-|---3—3-1-0-3-1-1-|
3-|-----------------|
4-|-2---------------|
5-|-----------------|
6-|-----------------|

Porq alumbra nada más
1-|-------------0-|
2-|-0-1-2-2-1-2---|
3-|---------------|
4-|---------------|
5-|---------------|
6-|---------------|
                        -
le canto porq ella sabe |
1-|-0-1-1-0--1-0-0-|    |
2-|--------3-------|    |
3-|----------------|    |
4-|----------------|    |
5-|----------------|    |
6-|----------------|    |
                        |
de mi largo caminar     bis
1-|-------------0--|    |
2-|-0-1-3-3-1-3----|    |
3-|----------------|    |
4-|----------------|    |
5-|----------------|    |
6-|----------------|    |
                       -|

Estribillo

Perdido en las cerrazones
1-|-3-3-1-0—-0-1-0--|
2-|--------3--------|
3-|-----------------|
4-|-----------------|
5-|-----------------|
6-|-----------------|

Quien sabe vidita por donde andaré
1-|-3-2-3-2-3-1-3-5-3-1-0-|
2-|-----------------------|
3-|-----------------------|
4-|-----------------------|
5-|-----------------------|
6-|-----------------------|

Más cuando salga la luna
1-|-0-1-1-0-1-0-0-|
2-|--------3------|
3-|---------------|
4-|-------------- |
5-|-------------- |
6-|-------------  |

Cantare, cantare
1-|-----------0-|
2-|-0-1-3-1-3---|
3-|-------------|
4-|-------------|
5-|-------------|
6-|-------------|

A mi Tucumán querido
1-|-0-1-1-0---1-0-0-|
2-|---------3-------|
3-|-----------------|
4-|-----------------|
5-|-----------------|
6-|-----------------|

Cantare, Cantare
1-|-------------|
2-|-0-1-3-1-0-1-|
3-|-------------|
4-|-------------|
5-|-------------|
6-|-------------|

Se repite el mismo punteo para la
Segunda estrofa:con esperanza o con pena...





Calificar esta versión:
Aviso: Este fichero es trabajo propio de su transcriptor y representa su interpretación personal de la canción. El material contenido en esta página es para exclusivo uso privado, por lo que se prohibe su reproducción o retransmisión, así como su uso para fines comerciales.
Más versiones de Luna Tucumana, Atahualpa Yupanqui
Luna Tucumana
acordes
Luna Tucumana (ver 2)
acordes
Luna Tucumana
tablatura
Luna Tucumana (ver 2)
tablatura
Luna Tucumana
armonica
Luna Tucumana
video guitarra
Descubre más canciones de Atahualpa Yupanqui