Los Ejes De Mi Carreta, Atahualpa Yupanqui (tablatura)

Autor: Anónimo | 25034 visualizaciones



LA-          MI7                  LA-                 MI7               LA-

1-------0-1-0----------/-1-0--------/----/------0-1-0---------/1-0-------/----/
2---1-3-------3-5-3-0--/-----3-5-3--/-5--/--1-3-------3-5-3-0-/----3-5-3-/-5--/
3----------------------/------------/----/--------------------/----------/----/
4----------------------/------------/----/--------------------/----------/----/
5----------------------/------------/----/--------------------/----------/----/
6----------------------/------------/----/--------------------/----------/----/


               SI7      MI7        LA-               SI7    MI7            LA-

1-------------------/-------------/----/------------------/--------------/----/
2---1-3-1-3-1-0-1-0-/-0-1---------/----/--1-3-1-3-1-0-1-0-/-0-1----------/----/
3-------------------/-----2-4-2-1-/-2--/------------------/-----2-4-2-1--/-2--/
4-------------------/-------------/----/------------------/--------------/----/
5-------------------/-------------/----/------------------/--------------/----/
6-------------------/-------------/----/------------------/--------------/----/




   LA-          MI7                  LA-                 MI7               LA-

1-------0-1-0----------/-1-0--------/----/------0-1-0---------/1-0-------/----/
2---1-3-------3-5-3-0--/-----3-5-3--/-5--/--1-3-------3-5-3-0-/----3-5-3-/-5--/
3----------------------/------------/----/--------------------/----------/----/
4----------------------/------------/----/--------------------/----------/----/
5----------------------/------------/----/--------------------/----------/----/
6----------------------/------------/----/--------------------/----------/----/




               SI7      MI7        LA-               SI7    MI7            LA-

1-------------------/-------------/----/------------------/--------------/----/
2---1-3-1-3-1-0-1-0-/-0-1---------/----/--1-3-1-3-1-0-1-0-/-0-1----------/----/
3-------------------/-----2-4-2-1-/-2--/------------------/-----2-4-2-1--/-2--/
4-------------------/-------------/----/------------------/--------------/----/
5-------------------/-------------/----/------------------/--------------/----/
6-------------------/-------------/----/------------------/--------------/----/


   LA-    LA-7   FA7   MI7             LA-       MI7          LA-

1-------------------/--0--------------/----/------------------------/
2---------------1-0-/-----------------/----/------------------------/
3---2-2-2-2-2-2-----/----1---2-4-2-1--/-2--/------------------------/
4-------------------/-----------------/----/------------------------/
5-------------------/-----------------/----/------------------------/
6-------------------/-----------------/----/------------------------/

Fuente original: LaCuerda
Colaborador original: ANGELILLO [punk_que_punk@hotmail.com]





Calificar esta versión:
Aviso: Este fichero es trabajo propio de su transcriptor y representa su interpretación personal de la canción. El material contenido en esta página es para exclusivo uso privado, por lo que se prohibe su reproducción o retransmisión, así como su uso para fines comerciales.
Más versiones de Los Ejes De Mi Carreta, Atahualpa Yupanqui
Los Ejes De Mi Carreta
acordes
Los Ejes De Mi Carreta (ver 2)
acordes
Los Ejes De Mi Carreta
tablatura
Los Ejes De Mi Carreta
video guitarra
Descubre más canciones de Atahualpa Yupanqui