Teddy Picker, Arctic Monkeys (tablatura) (ver 2)

Autor: topociego | 38538 visualizaciones



e-------------------------15
.--5-5--18-17-17-17-17-17---        
g.---------------------------     x2 veces ;)
.---------------------------
.---------------------------
E----------------------------

e----17---------------------15
.--5----18-17-1717-17-17---
g.---------------------------
.---------------------------
.---------------------------
E----------------------------


e----17---------------------
.--5----18-17-15-13-12-10-8--
g.---------------------------


e-5---17---5----17---5----17
.-5--------5---------5------
g.---------------------------

e.-17-15-13-12-------------------15--17-17--17
.--------------13-12-10-10-10-10-------------
g.------------------------------------------
.---------------------------------------
.-----------------------------------
E---------------------------- --









EN ALGUNAS PARTES SUENA MEJOR SI LO ARRASTRAS ;)
ESPERO LES SIRVA 



SU AMIGO TOPOCIEGO :P





Calificar esta versión:
Aviso: Este fichero es trabajo propio de su transcriptor y representa su interpretación personal de la canción. El material contenido en esta página es para exclusivo uso privado, por lo que se prohibe su reproducción o retransmisión, así como su uso para fines comerciales.
Más versiones de Teddy Picker, Arctic Monkeys
Teddy Picker
tablatura
Teddy Picker (ver 2)
tablatura
Descubre más canciones de Arctic Monkeys