Dancing Shoes, Arctic Monkeys (tablatura) (ver 2)

Autor: JuanLalo | 23600 visualizaciones



Intro ('Get on your dancing shoes'):
e---------------------------------------------------|
B---------------------------------------------------|
G---------------------------------------------------|   
D-----4--1--------4--1------------------2-2-2--4-2--|  x4
A----------2-----------2---4-4-4--6-4---------------|
E-4-4---------4-4-----------------------------------|


Coro ('The only reason that you came'):
e------------------------------------------------------|
B------------------------------------------------------|
G------------------------------------------------------|
D-6--4-11--9---6--6-6--4-6-----------------------------|  x3
A-6--4-11--9---4--6-6--4-6-----------------------------|
E-4--2--9--7---4--4-4--2-4-----------------------------


e------------------------------------------------------|
B------------------------------------------------------|
G------------------------------------------------------|
D-6--4--11--9------------------------------------------|  
A-6--4--11--9------------------------------------------|
E-4--2--9---7------------------------------------------|



Verso ('The lights are flashing'):
e---------------------------------------------------------|
B---------------------------------------------------------|
G---------------------------------------------------------|
D----------------------------------------2-2-2--4-2-------|  x2
A---------------------------4-4-4--6-4--------------------|
E-4-4-4--2-4---4-4-4--2-4---------------------------------|


Por 3 ª vez hay una nota extra ('Don't act like it's not happening'):
e---------------------------------------------------------|
B---------------------------------------------------------|
G---------------------------------------------------------|
D----------------------------------------2-2-2--4-2-------|  
A------------2--------------4-4-4--6-4--------------------|
E-4-4-4--2-4---4-4-4--2-4---------------------------------|


La 4 ª vez volver a la normalidad ('To go and mention your name'):
e---------------------------------------------------------|
B---------------------------------------------------------|
G---------------------------------------------------------|
D----------------------------------------2-2-2--4-2-------|  
A---------------------------4-4-4--6-4--------------------|
E-4-4-4--2-4---4-4-4--2-4---------------------------------|


Coro Lo mismo de arriba


El apoyo a la guitarra solista (haven't worked out solo yet, watch this space):
e-------------------------------------------|
B-------------------------------------------|
G-----------------6666666699999999----------|
D-66666666666666666666666699999999----------| x4  
A-66666666666666664444444477777777----------|
E-4444444444444444--------------------------|


De nuevo el intro ('Get on your dancing shoes'):
e---------------------------------------------------|
B---------------------------------------------------|
G---------------------------------------------------|   x2
D-----4--1--------4--1------------------2-2-2--4-2--|
A----------2-----------2---4-4-4--6-4---------------|
E-4-4---------4-4-----------------------------------|


'Oh and the shit, shock horror' (breve pausa entre cada acorde)
e---------------------------------------------------|
B---------------------------------------------------|
G------------------6-6-6-6-9-9-9-9------------------|   
D--6-6-6-6-6-6-6-6-6-6-6-6-9-9-9-9------------------|  x2
A--6-6-6-6-6-6-6-6-4-4-4-4-7-7-7-7------------------|
E--4-4-4-4-4-4-4-4----------------------------------|


Outro:
e-----------------------------------------------------------|
B-----------------------------------------------------------|
G-----------------------------------------------------------|   
D--6-6-6--4-6-----6-6-6--4-6-----6-6-6--4-6-----6-6-6--4-6--|
A--6-6-6--4-6-----6-6-6--4-6-----6-6-6--4-6-----6-6-6--4-6--|
E--4-4-4--2-4-----4-4-4--2-4-----4-4-4--2-4-----4-4-4--2-4--|





Comentarios del colaborador: Disfruten

Calificar esta versión:
Aviso: Este fichero es trabajo propio de su transcriptor y representa su interpretación personal de la canción. El material contenido en esta página es para exclusivo uso privado, por lo que se prohibe su reproducción o retransmisión, así como su uso para fines comerciales.
Más versiones de Dancing Shoes, Arctic Monkeys
Dancing Shoes
tablatura
Dancing Shoes (ver 2)
tablatura
Descubre más canciones de Arctic Monkeys