Niña, Antologia (acordes)

Autor: hebert rojas | 37589 visualizaciones



      REM     LAM
1)-14/17-17-14--14^10-10-12-12^14--|-14^12-12-12--14-14^12-11-12--|
2)---------------------------------|------------------------------|
3)---------------------------------|------------------------------|
4)---------------------------------|------------------------------|
5)---------------------------------|------------------------------|
6)-----------------------------(1)-|--------------------------(2)-|

    SOLM                      FA#M   SIM                    REM
1)-12^10-10-10-12--12^10-9-10-10^9--|------9---|------9-10-12-12/14---|
2)----------------------------------|----11-12-|-10-12----------------|
3)----------------------------------|--11------|----------------------|
4)----------------------------------|----------|----------------------|
5)----------------------------------|----------|----------------------|
6)------------------------------(3)-|------(4)-|------------------(5)-|

                           SIm
1)---12------12--14--10--9--10^9------|
2)-----12--12--------------------12---|
3)-------12---------------------------|
4)------------------------------------|
5)------------------------------------|
6)--------------------------------(6)-|


1)--9-------12---------4---7---7---7---7---7—-7.-7-7-7---|
2)---11--11---12--12----6-6-7-7-7-7-7-7-7-7--------------|
3)-----10-------12-------6---7---7---7---7----7.-7-7-7---|
4)-------------------------------------------------------|
5)-------------------------------------------------------|
6)---------------------------------------------------(7)-|


1)-----------------|
2)------2-3-5-5/7--|
3)--2-4------------|
4)-----------------|
5)-----------------|
6)-----------------|..........(*)

INTRO (1)(2)(3)(4)(5)(6)(5)(6)(7)

 RE
Lejos de ti solo estoy
 RE
Luchando por nuestro amor
 SOL                  FA#M    SIm
Para enfrentarle a la vida....niña........(*)
 REM     MIm         REM    FA#M-SIm
Aaaayyy  para enfrentarle a la vida...(5)(6)

---(7)---

 RE
No pienses que me olvide
RE
De las promesas de amor
SOL                FA#M    SIm
Que nos hicimos un día...niña........(*)
 REM     MIm      REM    FA#M-SIm
Aaaayyy  que nos hicimos un día...(5)(6)


.......(7).........

                   REM               LAM
1)-----------------------2/5-5-7^5-4-5---|
2)---7/10-10-7-7/5-5-7-------------------|
3)----------------7----------------------|
4)---------------------------------------|
5)---------------------------------------|
6)---------------------------------------|

                    SIm
1)--12^10--10-10-12-12^10-9--10-9-----|
2)--12-----12-12-12-12----11-12-10----|
3)--12--------------------------------|
4)------------------------------------|
5)------------------------------------|
6)------------------------------------|

....Sigue --(4)(5)(6)(5)(6)(7)--


 RE
Como quisiera jugar
 LA
Con tus cabellos y estar
 SOL                 FA#M  SIm
En tus recuerdos hoy día...niña........(*)
REM     MIm      REM     FA#M-SIm
Aaaayyy En tus recuerdos hoy día...(5)(6)

---(7)---


RE
No pienses que me olvide
 LA
De las promesas de amor
 SOL               FA#M  SIm
Que nos hicimos un día...niña........(*)
REM     MIm      REM    FA#M-SIm
Aaaayyy que nos hicimos  un  día...(5)(6)

---(7)---

    MIm     REM     FA#M  SIm
1)--12--12--14--14--9---9-----|
2)----14------15------11--12--|
3)--14------14------11----11--|
4)----------------------------|
5)----------------------------|
6)----------------------------|





Calificar esta versión:
Aviso: Este fichero es trabajo propio de su transcriptor y representa su interpretación personal de la canción. El material contenido en esta página es para exclusivo uso privado, por lo que se prohibe su reproducción o retransmisión, así como su uso para fines comerciales.
Más versiones de Niña, Antologia
Niña
acordes
Niña
tablatura
Descubre más canciones de Antologia