En Vano Fue, Antologia (tablatura) (ver 2)

Autor: Anónimo | 16267 visualizaciones



Io de nuevo Richard Alvaro Arias
--------------------------------------------------------
weno primeramente un saludo Luis hiso un buen trabajo al
sacar las notas y los punteos solo tuve q copearlo
pero io le puse algunos arreglos y los punteitos
q ban en plena cancion
si ai algun error pasenme la voz
--------------------------------------------------------
saludos para la gente de Gloria Grande C.C. km 14.800
Para las cabinas(LOS JARDINES)de miguel q sin esa ayuda
no hubiese sido posible esta edicion

para mi pata steech Ruben, Juan, chiky, Max, Abel
y toda la gente q juega GB

--------------------------------------------------------
ahy les va mejor no pude sacarla a ver pesa kien me da
una manito a mi y a luis
--------------------------------------------------------

(((Una Ves Me Dejaste Y Io Tonto Volvi Contigo
   Fue Ahy Donde Dije  "EN VANO FUE") ))

  QUE VIVA EL FOLKLORE PERUANO OK T.L.P.V.
-.-.-.-.-.-.-.-.-.-.-.-.-.-.-.-.-.-.-.-.-.-.-.-.-.-.-.-.-

Disfrutenla muchachos


Intro

1ª GUITARRA
   C arpegiado        Am arpegiado      |
e.-----------3-----------------|        |
b.-------3-5.--5-3----3--------|   x2   |
g.-2-4-5-----------4.---5-4-2--|        |
D.-----------------------------|        |
                                        |
2ª GUITARRA arpegia  acompañamiento     | Se toca al mismo tiempo
    C                Am                 |
e.-----------------------------------|  |
b.-----1-------1--------1-------1----|  |
g.----0-0-----0-0------2-2-----2-2---|  |
D.---2---2---2---2----2---2---2---2--|  |
A.--3-------3--------0-------0-------|  |


Acompañamiento zampoña
    C               Am
e.-----------------------------------|
b.-----1-------1--------1-------1----|
g.----0-0-----0-0------2-2-----2-2---| x2
D.---2---2---2---2----2---2---2---2--|
A.--3-------3--------0-------0-------|

Después sige un arpegio en toda la cancion y tmb punteos
   Am     F      E      C      G
e.------|------|------|------|------|
b.----1-|----1-|----0-|----1-|----3-|
g.---2--|---2--|---1--|---0--|---4--|
D.--2---|--3---|--2---|--2---|--5---|
A.-0----|------|------|-3----|------|
E.------|-1----|-0----|------|-3----|


Punteo
   Am                                 F
e.--8-7-5.--5-7-7/8-8-8/12-12-12-10-8-5-|
b.-5------5-----------------------------|
g.--------------------------------------|

                                   E
e.-1-1-3-5.-1-1-3-5-5-5-5/7-7-5-4-------|
b.-------------------------------6-5----|
g.-2-2-4-5.-2-2-4-5---------------------|
D.--------------------------------------|

   C                     E                    Am
e.--12-10-10/8-8-10-12-12/15-15-15--10-8-12-10-8-|
b.-----------------------------------------------| x2
g.-9---------------------------------------------|

--8-7-5-|
-5------|
--------|
         Am
En vano fue
                  F
el quererte cada día
          G
en vano fue
                    C
el amarte una vez mas    e.-8-7-8-10-8-10-12-13-12--.
          E
pero tu amor pero tu amor

que se va y se va.
C
Fingiste amarme una ves
     E           Am
simplemente mentías
C
Fingiste amarme otra vez
     E           Am
Simplemente mentias      E.-5-4-5-7-5-.


           Am
Si por tu amor
                        F
renuncie a las cosas mí…as
             G
si por tu amor
                    C
vida y alma te las dí
           E
hoy como ayer, hoy como ayer

me dejas tu adiós
C
fingiste amarme una vez
     E          Am
simplemente mentías.

C
fingiste amarme otra vez
     E          Am
simplemente mentías.


Intermedio
        Am                           F
e.--8-7-7/8.-5-7-7/8-8/12-12-12-10-8-5.------|
b.-9-----------------------------------------|

         G                  C
e.-5-7-5-7.-3-3/15-15-12-10-12---------------|
b.-------------------------------------------|
Renuncie a las cosas mias mi vida y mi alma te las di
             E
e.-10-10-8-8/10-10-10-8-8/10.-7-8-12-10-7----|
b.-------------------------------------------|
 y tu simplemente mentias
   C                  E             Am  C
e.--12-10-10/8-10-12.-7-7-10-8-7-10-8.---12-10-10/8-10-12-|
b.--------------------------------------------------------|
g.-9------------------------------------9-----------------|

   E              Am
e.-12/15-15-15-7-10-8------------------------------------|
b.-------------------------------------------------------|

          Am
Si por tu amor
                        F
renuncie a las cosas mí…as
             G
si por tu amor
                    C
vida y alma te las dí
           E
hoy como ayer, hoy como ayer

me dejas tu adiós
C
fingiste amarme otra vez
     E          Am
simplemente mentías.

C
fingiste amarme una vez
     E          Am
simplemente mentías.


(Bajada aun trabajo en ello)

C                    E Am
Y el amor que yo te tuve
 F              G   C
morirá en el recuerdo
                              E    B.-5/8-8-8-8-5-5----|
como el rumor que se va y se va    g.------------7-7-5-|

                  Am               B.-------------5--|
morirá en mi recuerdo              g.-4-4-4-4-4-4--5-|
.


C                    E Am
Y el amor que yo te tuve
 F              G   C
morirá en el recuerdo
                              E   B.-5/8-8-8-8-5-5----|
como el rumor que se va y se va   g.------------7-7-5-|

                  Am              B.-------------5--|
morirá en mi recuerdo             g.-4-4-4-4-4-4--5-|

C                     E
como el rumor que se va y se va   e.-12/15-15-15-15-12-10-12-10-8-|

                Am
morirá en mi recuerdo.            e.-7-7-7-7-7-7-12-8-|


-----------------------------------------------------------------
Y q les parecio  ta en algo o no...  comentarios  a mi MSN
RICHY_161_5@...xD  para todos aquellas y aquellos q les gusta la
guitarra :P





Calificar esta versión:
Aviso: Este fichero es trabajo propio de su transcriptor y representa su interpretación personal de la canción. El material contenido en esta página es para exclusivo uso privado, por lo que se prohibe su reproducción o retransmisión, así como su uso para fines comerciales.
Más versiones de En Vano Fue, Antologia
En Vano Fue
acordes
En Vano Fue
tablatura
En Vano Fue (ver 2)
tablatura
Descubre más canciones de Antologia