Alejate, Antologia (tablatura)

Autor: hebert rojas | 53020 visualizaciones




1)-9—-9--7----------9-10-|—12/10-12-11-11/12--|
2)-10-10-9-10-----10-----|--------------------|
3)---------11---11-------|--------------------|
4)-----------------------|--------------------|
5)-----------------------|--------------------|
6)-----------------------|--------------------|...(I)

1)-9—-9--7---------9-10—|-10-12-14-12^14—|-16-16-14/12-12-----|
2)-10-10-9-10----10-----|----------------|---------------15v--|
3)---------11--11-------|----------------|--------------------|
4)----------------------|----------------|--------------------|
5)----------------------|----------------|--------------------|
6)----------------------|----------------|--------------------|...(II)

1)-------12-14----|---------------|------------------|
2)--15-15-----12v-|-12-12^14-10---|-10-10^9----------|
3)--------- ------|------------11-|--------11-11/13--|
4)----------------|---------------|------------------|
5)----------------|---------------|------------------|
6)----------------|---------------|------------------|...(III)

1)-16-16-14/12-12----|------12-14----|---------------|
2)---------------15v-|-15-15-----12v-|-12-12^14-10---|
3)-------------------|---------------|------------11-|
4)-------------------|---------------|---------------|
5)-------------------|---------------|---------------|
6)-------------------|---------------|---------------|...(IV)


LA              MI            Fam#
Aléjate por el amor que yo te daba
        LA         Mi            Fam#
Y lleva ya aquel puñal de tu mal pago
RE                  LA
Se llevara todo mi amor
Dom#     Sim          Fam#
Mi juventud mi vida entera
RE                    LA
Te llevaras todo mi amor
Dom#     Sim          Fam#
Mi juventud mi vida entera


LA                    MI             Fam#
Pido perdón por este ser que esta muriendo
    LA               MI          Fam#
Mi corazón se niega amar a otro cariño
RE                   LA
Te llevare como una luz
Dom#     Sim          Fam#
Prendida a mí es mi martirio
RE                   LA
Te llevare como una luz
Dom#     Sim          Fam#     MI
Prendida a mí es mi tormento


ACA ENTRA LA QUENA Y SIGUE ...(I)(II)(III)(IV) y despues esto :


1)-9—-9—-7--9-|-9--9--9--7-|-7-9--7-5----|
2)------------|------------|----------7v-|
3)------------|------------|-------------|
4)-11-11-9-11-|-11-11-11-9-|-9-11-9-7----|
5)------------|------------|----------9v-|
6)------------|------------|-------------|

1)-9—-9—-7--9-|-9--12-9--7-|-7-9--7-5----|
2)------------|------------|----------7v-|
3)------------|------------|-------------|
4)-11-11-9-11-|-11-14-11-9-|-9-11-9-7----|
5)------------|------------|----------9v-|
6)------------|------------|-------------|


LA               MI             Fam#
Perdóname si te ame con gran delirio
   LA                 MI            Fam#
Es que el amor solo una ves toco mi alma
RE                   LA
Te llevare dentro de mí
Dom#     Sim          Fam#
En alma y piel con gran ternura
RE                   LA
Te llevare dentro de mí
Dom#     Sim          Fam#
En alma y piel con gran ternura

LA                   MI             Fam#
Pido perdón por este ser que esta muriendo
   La                MI           Fam#
Mi corazón se niega amar a otro cariño
RE                   LA
Te llevare como una luz
Dom#     Sim          Fam#
Prendida a mí es mi martirio
RE                   LA
Te llevare como una luz
Dom#     Sim          Fam#
Prendida a mí es mi martirio

Fam#            MI            Fam#
Aléjate por el amor que yo te daba.








Calificar esta versión:
Aviso: Este fichero es trabajo propio de su transcriptor y representa su interpretación personal de la canción. El material contenido en esta página es para exclusivo uso privado, por lo que se prohibe su reproducción o retransmisión, así como su uso para fines comerciales.
Más versiones de Alejate, Antologia
Aléjate
acordes
Alejate
tablatura
Descubre más canciones de Antologia