Así Es La Vida, Annette Moreno (tablatura)

Autor: Anónimo | 23751 visualizaciones



INTRO: Em-C //

E-3-2----------------------------------
B-----5-3------------------------------
G---------4-2-----2-4-5-4-2---2-4-5-4--
D-------------4*5-----------5----------
A--------------------------------------
E--------------------------------------

E-3-2-------------------------------------
B-----5-3---------------------------------
G---------4-2-----2-4-5-4h5h4-2---2-4-5-4-
D-------------4*5---------------5---------
A-----------------------------------------
E-----------------------------------------

Arpegios de la guitarra dentro del verso:

    (E10)

E---------------------0-----
B-------3-----3-----3---3---
G-----0-----0---0---------0-
D---2-----2-------2---------
A---------------------------
E-0-------------------------

    (Cadd2)

E---------------------0-----
B-------3-----3-----3---3---
G-----0-----0---0---------0-
D---2-----2-------2---------
A-3-------------------------
E---------------------------

****** EADGBe *******
 E10:  022030       *
Cadd2: 032030       *
*********************

SOLO:

E-------17-15--14s15-14-12s14-12--12-15-15*s14-14-12-12-13s14-15-14-12-12v-
B--------------------------------------------------------------------------
G-15s16--------------------------------------------------------------------
D--------------------------------------------------------------------------
A--------------------------------------------------------------------------
E--------------------------------------------------------------------------

s: ejemp, 15s16; tocas la cuerda en el traste 15, y simbolber
a tocarla rapidamente te vas al traste 16 sin levantar el dedo
y sin cambiar de dedo....





Calificar esta versión:
Aviso: Este fichero es trabajo propio de su transcriptor y representa su interpretación personal de la canción. El material contenido en esta página es para exclusivo uso privado, por lo que se prohibe su reproducción o retransmisión, así como su uso para fines comerciales.
Más versiones de Así Es La Vida, Annette Moreno
Así Es La Vida
acordes
Así Es La Vida
tablatura
Descubre más canciones de Annette Moreno