Sol, Animal (tablatura) (ver 2)

Autor: Anónimo | 16436 visualizaciones



TAB: hernan ([email protected])

/  = slide
b  = bend
v  = vibrato
AF = aflojar kon la mano izk. en dicho akorde.
^  = dejar sonar.
! = aca hay que hacer un volume swell con el potenciometro 
    de volumen de minimo a maximo, primero tocando la nota

bueno, aka esta sol de animal completisima y nunca antes en
internet, si quieren que saque otras canciones que nadie mas saco
escribanme al mail y si alguien tiene la tab de sabia naturaleza 
por favor mandemela a [email protected] que se me esta haciendo
dificil sacarla.

INTRO (Ruidos con la pua en el mastil)
entra bajo

    !
D------19b----17br------15br------13br--------------------------|
A--17b-------------15br------13br------11br---------------------|
F---------------------------------------------------------------|
C---------------------------------------------------------------|
G--------------------------------------------0-5-0-4-0-3-0-2-0--|
C--------------------------------------------0-5-0-4-0-3-0-2-0--|
                                          pm .................
riff1
D-------------------------------------------|
A-------------------------------------------|
F-------------------------------------------|
C-------------------------------------------| x2
G---0-0-0-0-3-0---0-0-0-0-0-0-3-0-5-5-------|
C---0-0-0-0-3-0---0-0-0-0-0-0-3-0-5-5-------|
pm....................................


versos fuente de magica energia...
D-------------------------------------------|
A-------------------------------------------|
F-------------------------------------------| x4
C---0---0-0--3-0--0-0--0-1-2--3-0-5-5-------|
G---0---0-0--3-0--0-0--0-1-2--3-0-5-5-------|
C---0---0-0--3-0--0-0--0-1-2--3-0-5-5-------|

valiente ligera guerrera perfecta
D-------------------------------------------|
A-------------------------------------------|
F-------------------------------------------|
C-------------------------------------------| x4
G---0-0-0-0-3-0---0-0-0-0-0-0-3-0-5-5-------|
C---0-0-0-0-3-0---0-0-0-0-0-0-3-0-5-5-------|
pm....................................


sol, sol
D----------------------------|
A----------------------------|
F----------------------------|
C---11-----7-----4--4--------| x3
G---11-----7-----4--4--------|
C---11-----7-----4--4--------|

nada de esto tiene tanto poder
D-------------------------------------|
A-------------------------------------|
F-------------------------------------|
C---2-2---2---2-2-2---2--2--2-2-------|
G---2-2---2---2-2-2---2--2--2-2-------|
C---2-2---2---2-2-2---2--2--2-2-------|
pm  ...........................

D-------------------------------------------|
A-------------------------------------------|
F-------------------------------------------|
C-------------------------------------------| x4
G---0-0-0-0-3-0---0-0-0-0-0-0-3-0-5-5-------|
C---0-0-0-0-3-0---0-0-0-0-0-0-3-0-5-5-------|
pm....................................

nada de esto tiene tanto poder
D-------------------------------------|
A-------------------------------------|
F-------------------------------------|
C---2-2---2---2-2-2---2--2--2-2-------| x4
G---2-2---2---2-2-2---2--2--2-2-------|
C---2-2---2---2-2-2---2--2--2-2-------|
pm  ...........................

break 1 (rapido)
D-----------------------------------|
A-----------------------------------|
F-----------------------------/-7---| 
C--7/4--4--7/4--4-----9-10-9-/-7---| x4
G--7/4--4--7/4--4-----9-10-9-/-7---|
C--7/4--4--7/4--4-----9-10-9-------|

(lento) sol, derritiendo el dolor
D--------------------------|
A--------------------------|
F----------------------7---|
C--7-/-4---4---9-10-9--7---| x4
G--7-/-4---4---9-10-9--7---|
C--7-/-4---4---9-10-9------|

D------------------------------|
A------------------------------|
F-------------------------2----| x3
C-------2---2---2---2---2------|
G-----2---2---2---2---2--------|
C---2---2---2---2--------------|

levantar el pm gradualmente
D------------------------------|
A------------------------------|
F------------------------------|
C-----2-2-2-2-2-2-2-2-2-2------|
G-----2-2-2-2-2-2-2-2-2-2------|
C-----2-2-2-2-2-2-2-2-2-2------|
pm.................. 

D------------------------------|
A------------------------------|
F------------------------------|
C---2-0-2--2-0-2-/-5--4--3-----| x8
G---2-0-2--2-0-2-/-5--4--3-----|
C---2-0-2--2-0-2-/-5--4--3-----|

D-------------------------------------------|
A-------------------------------------------|
F-------------------------------------------|
C-------------------------------------------| x3
G---0-0-0-0-3-0---0-0-0-0-0-0-3-0-5-0-------|
C---0-0-0-0-3-0---0-0-0-0-0-0-3-0-5-0-------|
pm....................................

nada de esto tiene tanto poder
D-------------------------------------|
A-------------------------------------|
F-------------------------------------|
C---2-2---2---2-2-2---2--2--2-2-------|
G---2-2---2---2-2-2---2--2--2-2-------|
C---2-2---2---2-2-2---2--2--2-2-------|
pm  ...........................

break 1 (rapido)
D-----------------------------------|
A-----------------------------------|
F-------------------------------7---|
C--7/4--4--7/4--4-----9-10-9-/-7---| x4
G--7/4--4--7/4--4-----9-10-9-/-7---|
C--7/4--4--7/4--4-----9-10-9-/-----|

(lento) sol, derritiendo el dolor
D--------------------------|
A--------------------------|
F----------------------7---|
C--7-/-4---4---9-10-9--7---| x4
G--7-/-4---4---9-10-9--7---|
C--7-/-4---4---9-10-9------|

D-----------------------------------------|
A-----------------------------------------|
F---------------------2-------------2---2-|
C-------2--2---2----2-----x3------2---2---|
G-----2------2---2--------------2---------|
C---2-------------------------2-----------|

tab: copyright 2001-2003 Hernán Martel.

se aceptan sugerencias sobre proximas tabs de temas.
suggestions accepted for next tabs of songs.

comments, suggestions, insults, at [email protected]
comentarios, sugerencias, insultos en [email protected]

Fuente original: LaCuerda
Colaborador original: hernan [[email protected]]





Calificar esta versión:
Aviso: Este fichero es trabajo propio de su transcriptor y representa su interpretación personal de la canción. El material contenido en esta página es para exclusivo uso privado, por lo que se prohibe su reproducción o retransmisión, así como su uso para fines comerciales.
Más versiones de Sol, Animal
Sol
tablatura
Sol (ver 2)
tablatura
Descubre más canciones de Animal