Esclavo De Ilusion, Animal (bajo)

Autor: Anónimo | 36944 visualizaciones



Version de Acosados (no de Poder Latino)

Afinacion: E A D G

Riff 1
G|------9^-----5^-7^-------|   ^ = armonico.
D|--------9^----------7^---|
A|----------------------7^-|
E|-0-----------------------|

Riff 2
G|-------------------|                     |-------------------9---|
D|-------------------|  A veces lo cambia  |-----------------------|
A|--------2--3-------|  y hace esto------> |--------2--3-3/8-7-----|
E|-0----0-------1-0~-|                     |-0----0----------------|

Riff 3
G|--------------------------|
D|--------------------3-----| Este riff cambia muchisimo
A|-5--5-5-5-3-1---3-5---5-3-| Lo que hace es jugar con las
E|--------------------------| 5tas y las 8vas.

Hace asi o algo por el estilo (Igual prueben ustedes)
G|----7-7------3-------------|
D|-----7------3-3------3-----| Fijense, cambienlo
A|-5--------1------3-5---5-3-| y agreguen 8vas o 5tas
E|---------------------------| Queda bastante bien.

Riff 4
G|---------------------------|
D|---------------------------|
A|--------------3------------|
E|-00-3-5-3-5-6---6-5-3h5-3--|

Orden:
Riff 1x16
     2x8
     3x4
     1x4
     2x8
     3x8
     1x14
     2x8
     4x18
     3x8
     2 hasta el final.

Dudas o comentarios a piri_22@hotmail.com

Fuente original: LaCuerda
Colaborador original: Nicolas [piri_22@hotmail.com]





Calificar esta versión:
Aviso: Este fichero es trabajo propio de su transcriptor y representa su interpretación personal de la canción. El material contenido en esta página es para exclusivo uso privado, por lo que se prohibe su reproducción o retransmisión, así como su uso para fines comerciales.
Más versiones de Esclavo De Ilusion, Animal
Esclavo De Ilusion
tablatura
Esclavo De Ilusion (ver 2)
tablatura
Esclavo De Ilusion
bajo
Descubre más canciones de Animal