Cop Killer, Animal (bajo)

Autor: Anónimo | 30380 visualizaciones



Intro (en medio de la 4° vuelta de guitarra)
         x1                                               x2
G|---------|------------------------------------------------|
D|---------|------------------------------------------------|
A|---------|------------------------------------------------|
E|-5h7-5-3-|-0000-5-3-5-0000--5-3-5-0000-5-3-5-0000-5h7-5-3-|

Verso (...Tengo mi camisa negra...)
             x3              x1  
G|--------------|--------------|             
D|--------------|--------------|
A|--------------|--------------|
E|0000-555-33-5-|0000-/7-5-3-0-|
              x3             x1
G|--------------|--------------|
D|--------------|--------------|
A|--------------|--------------|
E|0000-555-33-5-|0000-/7-5-3~--|

Coro (...Cop Killer!...)
                  x3                 x1
G|-------------------|-----------------|
D|-------------------|-----------------|
A|-------------------|---------5-5-6-7-|
E|-5555-3-0-33333333-|-5h7-3-5---------|

Verso x2
Coro  x2
Verso x2
Verso x2 (durante el ...Fuck the police...)
Coro  x1
Verso x2 (Durante solo de guitarra)
Verso x2 (durante el ...Fuck the police...)
Break sin bajo.

Cuando el bajo entra hace mas o menos asi...
G|---------|
D|---------|
A|---------|
E|--/10-0-|

Verso x2

Final
                   x3                    x1
G|-------------------|---------------------|
D|-------------------|---------------------|
A|-------------------|---------5--5--6--7~-|
E|-5555-3-0-33333333-|-5h7-3-5-------------|

Dudas o comentarios a piri_22@hotmail.com

Fuente original: LaCuerda
Colaborador original: Nicolas [piri_22@hotmail.com]





Calificar esta versión:
Aviso: Este fichero es trabajo propio de su transcriptor y representa su interpretación personal de la canción. El material contenido en esta página es para exclusivo uso privado, por lo que se prohibe su reproducción o retransmisión, así como su uso para fines comerciales.
Más versiones de Cop Killer, Animal
Cop Killer
tablatura
Cop Killer
bajo
Descubre más canciones de Animal