The Gift, Angels And Airwaves (tablatura)

Autor: robert | 31851 visualizaciones



E|--------------------------------------------------------------|
B|--------------------------------------------------------------|
G|11-11-11--11-11-11-13~998-------------------------------------|
D|---------------------------9~---------------------------------|
A|--------------------------------------------------------------|
E|--------------------------------------------------------------|


pre-chorus

1:05-1:22

(Keyboard arangment for guitar) (with delay) (elevens not ones)

E|--------------------------------------------------------------|
B|--------------------------------------------------------------|
G|111111111111111999999991111111111111199999999-----------------|
D|000000000000000000000000000000000000000000000-----------------|
A|--------------------------------------------------------------|
E|--------------------------------------------------------------|

(guitar 2) (if your the solo guitarist then i would advise you to play this 
thats what i do,and so does David from AVA,because he's the only guitarist in this song)

                                                       (w/ delay)
E|--------------------------------------------------------------|
B|--------------------------------------------------------------|
G|--------------------------------------------------------------|
D|--------------------------------------------------------------|
A|66-77---22-44---66-77---22-44---66-77---22-44---66-77---22-44-|
E|--------------------------------------------------------------|


chorus


1:22 (w/delay) just repeat until 1:41

E|-----------------------------------------------------------------|
B|-----------------------------------------------------------------|
G|1111111111111111-9-9-9-9-9-9-9-9--111111111111111-9-9-9-9-9-9-9-9|
D|9-9-9-9-9-9-9-9--9-9-9-9-9-9-9-9--9-9-9-9-9-9-9-9-9-9-9-9-9-9-9-9|
A|-----------------------------------------------------------------|
E|-----------------------------------------------------------------|

verse two

1:41-2:26

E|--------------------------------------------------------------|
B|--------------------------------------------------------------|
G|11-11-11--11-11-11-13~998-------------------------------------|
D|---------------------------9~---------------------------------|
A|--------------------------------------------------------------|
E|--------------------------------------------------------------|

pre-chorus

2:26-2:45

(Keyboard arangment for guitar) (with delay) (elevens not ones)

E|--------------------------------------------------------------|
B|--------------------------------------------------------------|
G|111111111111111999999991111111111111199999999-----------------|
D|000000000000000000000000000000000000000000000-----------------|
A|--------------------------------------------------------------|
E|--------------------------------------------------------------|

(guitar 2)  (w/ delay)

E|--------------------------------------------------------------|
B|--------------------------------------------------------------|
G|--------------------------------------------------------------|
D|--------------------------------------------------------------|
A|66-77---22-44---66-77---22-44---66-77---22-44---66-77---22-44-|
E|--------------------------------------------------------------|


chorus

2:45-3:22


E|-----------------------------------------------------------------|
B|-----------------------------------------------------------------|
G|1111111111111111-9-9-9-9-9-9-9-9--111111111111111-9-9-9-9-9-9-9-9|
D|9-9-9-9-9-9-9-9--9-9-9-9-9-9-9-9--9-9-9-9-9-9-9-9-9-9-9-9-9-9-9-9|
A|-----------------------------------------------------------------|
E|-----------------------------------------------------------------|


Bridge

3:23-3:40


E|--------------------------------------------------------------|
B|--------------------------------------------------------------|
G|--------------------------------------------------------------|
D|--------------------------------------------------------------|
A|66-77---22-44---66-77---22-44---66-77---22-44---66-77---22-44-|
E|--------------------------------------------------------------|

3:41-4:18


E|-----------------------------------------------------------------|
B|-----------------------------------------------------------------|
G|1111111111111111-9-9-9-9-9-9-9-9--111111111111111-9-9-9-9-9-9-9-9|
D|9-9-9-9-9-9-9-9--9-9-9-9-9-9-9-9--9-9-9-9-9-9-9-9-9-9-9-9-9-9-9-9|
A|-----------------------------------------------------------------|
E|-----------------------------------------------------------------|

4:18-5:00


E|--------------------------------------------------------------|
B|--------------------------------------------------------------|
G|11-11-11--11-11-11-13~998-------------------------------------|
D|---------------------------9~---------------------------------|
A|--------------------------------------------------------------|
E|--------------------------------------------------------------|





Calificar esta versión:
Aviso: Este fichero es trabajo propio de su transcriptor y representa su interpretación personal de la canción. El material contenido en esta página es para exclusivo uso privado, por lo que se prohibe su reproducción o retransmisión, así como su uso para fines comerciales.