Everythings Magic, Angels And Airwaves (tablatura)

Autor: robert | 43538 visualizaciones



Intro
E|-----------------------------------|
B|-8-------6-------5-------6---------|
G|---5---5---5---5---5---5---5---5---|
D|-----7-------7-------7-------7---7-|
A|-----------------------------------|
E|-----------------------------------| x4

Verse
E|-----------------------------------|
B|-8-------6-------5-------6---------|
G|---5---5---5---5---5---5---5---5---|
D|-----7-------7-------7-------7---7-|
A|-----------------------------------|
E|-----------------------------------| x8

Chorus
E|---------------------------------|
B|--8--8-8-8-8--8-8--6-------------|
G|--5--5-5-5-5--5-5--5-------------| X 16
D|---------------------------------|
A|---------------------------------|
E|---------------------------------|

Verse
E|-----------------------------------|
B|-8-------6-------5-------6---------|
G|---5---5---5---5---5---5---5---5---|
D|-----7-------7-------7-------7---7-|
A|-----------------------------------|
E|-----------------------------------| x8

Chorus
E|---------------------------------|
B|--8--8-8-8-8--8-8--6-------------|
G|--5--5-5-5-5--5-5--5-------------| X 16
D|---------------------------------|
A|---------------------------------|
E|---------------------------------|

Chorus/Outro
|---------------------------------|
|--8--8-8-8-8--8-8--6-------------|
|--5--5-5-5-5--5-5--5-------------| X 16
|---------------------------------|
|---------------------------------|
|---------------------------------|





Calificar esta versión:
Aviso: Este fichero es trabajo propio de su transcriptor y representa su interpretación personal de la canción. El material contenido en esta página es para exclusivo uso privado, por lo que se prohibe su reproducción o retransmisión, así como su uso para fines comerciales.