Everithing´s Magic, Angels And Airwaves (tablatura)

Autor: daniel_metal | 36204 visualizaciones



Intro

E|------------------------------------------------------------------------||
B|-8-------6-------5-------6---------8-------6-------5-------6------------||
G|---5---5---5---5---5---5---5---5-----5---5---5---5---5---5---5---5------||
D|-----7-------7-------7-------7---7-----7-------7-------7-------7---7----||
A|------------------------------------------------------------------------||
E|------------------------------------------------------------------------||

E|------------------------------------------------------------------------||
B|-8-------6-------5-------6---------8-------6-------5-------6------------||
G|---5---5---5---5---5---5---5---5-----5---5---5---5---5---5---5---5------||
D|-----5-------5-------5-------5---5-----5-------5-------5-------5---5----||
A|------------------------------------------------------------------------||
E|------------------------------------------------------------------------||

Verse

E|------------------------------------------------------------------------||
B|-8-------6-------5-------6---------8-------6-------5-------6------------||
G|---5---5---5---5---5---5---5---5-----5---5---5---5---5---5---5---5------||
D|-----7-------7-------7-------7---7-----7-------7-------7-------7---7----||
A|------------------------------------------------------------------------||
E|------------------------------------------------------------------------||

E|------------------------------------------------------------------------||
B|-8-------6-------5-------6---------8-------6-------5-------6------------||
G|---5---5---5---5---5---5---5---5-----5---5---5---5---5---5---5---5------||
D|-----5-------5-------5-------5---5-----5-------5-------5-------5---5----||
A|------------------------------------------------------------------------||
E|------------------------------------------------------------------------||

E|------------------------------------------------------------------------||
B|-8-------6-------5-------6---------8-------6-------5-------6------------||
G|---5---5---5---5---5---5---5---5-----5---5---5---5---5---5---5---5------||
D|-----7-------7-------7-------7---7-----7-------7-------7-------7---7----||
A|------------------------------------------------------------------------||
E|------------------------------------------------------------------------||

E|------------------------------------------------------------------------||
B|-8-------6-------5-------6---------8-------6-------5-------6------------||
G|---5---5---5---5---5---5---5---5-----5---5---5---5---5---5---5---5------||
D|-----5-------5-------5-------5---5-----5-------5-------5-------5---5----||
A|------------------------------------------------------------------------||
E|------------------------------------------------------------------------||

Chorus

|---------------------------------||
|--8--8-8-8-8--8-8--6-------------||
|--5--5-5-5-5--5-5--5-------------|| X 16
|---------------------------------||
|---------------------------------||
|---------------------------------||

on the 16th time, just before the chorus ends, it changes slightly, and you play this, 
let the last bit ring

|---------------------------------||
|--8--8-8-8-8--8-8--6--5~~--------||
|--5--5-5-5-5--5-5--5--5~~--------||
|---------------------------------||
|---------------------------------||
|---------------------------------||

Verse

E|------------------------------------------------------------------------||
B|-8-------6-------5-------6---------8-------6-------5-------6------------||
G|---5---5---5---5---5---5---5---5-----5---5---5---5---5---5---5---5------||
D|-----7-------7-------7-------7---7-----7-------7-------7-------7---7----||
A|------------------------------------------------------------------------||
E|------------------------------------------------------------------------||

E|------------------------------------------------------------------------||
B|-8-------6-------5-------6---------8-------6-------5-------6------------||
G|---5---5---5---5---5---5---5---5-----5---5---5---5---5---5---5---5------||
D|-----5-------5-------5-------5---5-----5-------5-------5-------5---5----||
A|------------------------------------------------------------------------||
E|------------------------------------------------------------------------||

E|------------------------------------------------------------------------||
B|-8-------6-------5-------6---------8-------6-------5-------6------------||
G|---5---5---5---5---5---5---5---5-----5---5---5---5---5---5---5---5------||
D|-----7-------7-------7-------7---7-----7-------7-------7-------7---7----||
A|------------------------------------------------------------------------||
E|------------------------------------------------------------------------||

E|------------------------------------------------------------------------||
B|-8-------6-------5-------6---------8-------6-------5-------6------------||
G|---5---5---5---5---5---5---5---5-----5---5---5---5---5---5---5---5------||
D|-----5-------5-------5-------5---5-----5-------5-------5-------5---5----||
A|------------------------------------------------------------------------||
E|------------------------------------------------------------------------||


Chorus

|---------------------------------||
|--8--8-8-8-8--8-8--6-------------||
|--5--5-5-5-5--5-5--5-------------|| X 16
|---------------------------------||
|---------------------------------||
|---------------------------------||

right at the end of the 16th time, the extra notes are added and they ring into the bridge

|---------------------------------||
|--8--8-8-8-8--8-8--6--5~~--------||
|--5--5-5-5-5--5-5--5--5~~--------||
|---------------------------------||
|---------------------------------||
|---------------------------------||

Bridge
Only drums, bass and organ like keyboard

Chorus/Outro


|---------------------------------||
|--8--8-8-8-8--8-8--6-------------||
|--5--5-5-5-5--5-5--5-------------|| X 16
|---------------------------------||
|---------------------------------||
|---------------------------------||





Calificar esta versión:
Aviso: Este fichero es trabajo propio de su transcriptor y representa su interpretación personal de la canción. El material contenido en esta página es para exclusivo uso privado, por lo que se prohibe su reproducción o retransmisión, así como su uso para fines comerciales.