Sin Documentos, Andrés Calamaro (tablatura) (ver 3)

Autor: Anónimo | 44939 visualizaciones

bueno este es mi primer aporte y cuenta con las notas idénticas
a lo que es la canción espero les agrade viva don andres calamaro¡
NOTA: todos los acordes van a conforme su segundo desarrollo
para q se escuche mejor
      Dm             A                Bb             A7

e|-O-|---|---|   e|-O-|---|---|   e|-O-|---|---|   e|-O-|---|---|
B|---|-O-|---|   B|-O-|---|---|   B|---|---|---|   B|-O-|---|---|
G|---|---|-O-|   G|---|-O-|---|   G|---|-O-|---|   G|---|-O-|---|
D|---|---|-O-|   D|---|---|-O-|   D|---|---|-O-|   D|-O-|---|---|
A|-O-|---|---|   A|---|---|-O-|   A|---|---|-O-|   A|---|---|-O-|
E|---|---|---|   E|-O-|---|---|   E|-O-|---|---|   E|-O-|---|---|
   5                5                6                5



-INTRO-
            Dm                        A
e --5-5-5-5-6-5-------5-------5-5-5-5-6-5-------5-----|
B --------------6---6---------------------5---5-------|
G ----------------7-------------------------6---------|
D ----------------------------------------------------|
           Bb                    A7
e --5-5-6-8-6--5-6-5--------------------|
B --------------------8-8-6--8-6-5------|
G --------------------------------------|
D --------------------------------------|


 Dm                          A
Déjame atravesar el viento sin documentos
       Bb                            A-A7
que lo hare por el viento que tuvimos
 Dm                            A
porque no queda salida porque pareces dormida
 Bb                          A                A7
porque buscando tu sonrisa estaría toda mi vida

 Bb                          A
Quiero ser el único que te muerda la boca
 Bb                                 A
quiero saber que la vida contigo no va a terminar


 Dm                              A
Déjame que te cierre esta noche los ojos
        Bb                             A-A7
y mañana vendré con un cigarro a la cama
 Dm                              A
porque no tengo más intenciones que seguir
                  Bb                      A-A7
bebiendo de esta copa que no esta tan rota.


Bb                          A
Quiero ser el único que te muerda la boca
Bb                                   A          A7
quiero saber que la vida contigo no va a terminar


       Dm        Dm         Dm
Porque si, porque si, porque si...
               A
porque en esta vida no quiero pasar
       Bb             A-A7
un día entero sin ti

       Dm        Dm         Dm
Porque si, porque si, porque si...
                A
porque mientras espero por ti me muero
            Bb            A-A7
y no quiero seguir así


INTRO


Déjame atravesar el viento sin documentos
que lo hare por el viento que tuvimos
porque no queda salida porque pareces dormida
porque buscando tu sonrisa estaría toda mi vida

Quiero ser el único que te muerda la boca
quiero saber que la vida contigo no va a terminar

Porque si, porque si, porque si...
porque en esta vida no quiero pasar
un dia entero sin ti

Porque si, porque si, porque si...
porque mientras espero por ti me muero
y no quiero seguir asi


SOLO     (Dm-A-Bb-A7)X 4
e|------------------------------------------------------------------------|
B|------------------------------------------------------------------------|
G|--------------------------12-10-----------------------------------------|
D|-(10e)11e10-8-10e12-10/12-------12-10--8-10e11e10-8-10t8-78/7----------|
A|---------------------------------------------------------------9--------|
E|-----------------------------------------------------------------11-10--|


e|------------------------------------------------------------------------|
B|------------------------------------------------------------------------|
G|----------------------------------------------12-10e11----10------------|
D|------8-10-8-10e11-10-8-10t8----8----10e11-12----------------12-10/12---|
A|-8/10------------------------10-----------------------------------------|
E|------------------------------------------------------------------------|


e|------------------------------------------------------------------------|
B|------11-13-(13e)14e13-11------------8----------------------------------|
G|-7/12---------------------12--10e12----10-7------10e11.5-7----7--7------|
D|--------------------------------------------10-8-----------10------10e11|
A|------------------------------------------------------------------------|
E|------------------------------------------------------------------------|





e|------------------------------------------------------------------------|
B|------------------------------------------------------------------------|
G|---------------------------------------------------------12-------12----|
D|e10-8-----------------8m10-8-10e11---10t8m10-8/10-10/12-----10m12-------|
A|-----------------8/10---------------------------------------------------|
E|------10---10-11--------------------------------------------------------|



e|------------------------------------------------------------------------|
B|--------------------------------11-11----13e14-13e14-13e14-13e14-(13e)14|
G|------12-------12-------12-8/12-------12--------------------------------|
D|10m12----10m12----10m12-------------------------------------------------|
A|------------------------------------------------------------------------|
E|------------------------------------------------------------------------|



e|------------------------------------------------------------------------|
B|14e13-11----13----11e12e11e12e11e12--15t11-15-15-15t11----15-15t11----15|
G|---------12----12--------------------------------------12----------12---|
D|------------------------------------------------------------------------|
A|------------------------------------------------------------------------|
E|------------------------------------------------------------------------|



e|------------------------------------------------------------------------|
B|-15t11----15-15-15t11----15/--18-18--18-18-18-18-18-17-16-15---------15-|
G|-------12-------------12---------------------------------------17e18----|
D|------------------------------------------------------------------------|
A|------------------------------------------------------------------------|
E|------------------------------------------------------------------------|



e|-------15-------15----------15--------------15----------15--------------|
B|-18e19-------------15-18e19----18--15----------15-18e19----18-15-16t15--|
G|----------17e18-----------------------17e18-----------------------------|
D|------------------------------------------------------------------------|
A|------------------------------------------------------------------------|
E|------------------------------------------------------------------------|



e|------------------------------------------------13----------------------|
B|---------13-(13e)14-14e13t11-13e14e-13-11-13e14----13e14--11----11------|
G|-17-e18------------------------------------------------------12----12/14|
D|------------------------------------------------------------------------|
A|------------------------------------------------------------------------|
E|------------------------------------------------------------------------|



e|-------------------------------------|
B|-------------------------------------|
G|12...-11....-------------------------|
D|-------------13...-12----------------|
A|-------------------------------------|
E|-------------------------------------|


Bb                          A
Quiero ser el único que te muerda la boca
Bb                                   A          A7
quiero saber que la vida contigo no va a terminar
    Bb                          A
Hay Quiero ser el único que te muerda la boca
Bb                                   A          A7
quiero saber que la vida contigo no va a terminar

       Dm
Porque si!!
               A
porque en esta vida no quiero pasar
       Bb            A-A7
un dia entero sin ti

Porque si!
porque mientras espero por ti me muero
y no quiero seguir asi
                            -intro-

Dm-Dm-Dm
Aviso: Este fichero es trabajo propio de su transcriptor y representa su interpretación personal de la canción. El material contenido en esta página es para exclusivo uso privado, por lo que se prohibe su reproducción o retransmisión, así como su uso para fines comerciales.

Comentarios en Facebook: