La Flor, Anabantha (tablatura)

Autor: 666pam666 | 16820 visualizaciones

Este tema se lo dedico a mi amiga del alma marisabeth que la quiero
mucho Xxxxx esta es mi primera transcripcion lo hice a la rapida jj jj xXXXXX
mmm y pronto el solo de guitarra acustica


-------x3----------------------------------------------------

-------12-------------0-0h1-0----12-----------17-15-13-12----
----10----13-12-13------------10----13-12-13-----------------
-----------------------------------------------------------------------------------------------------------------------------
---0----------------0--------0---------------0---------------
-------------------------------------------------------------

-------12-------------0-0h1-0----12--------------10-12-10--8-
----10----13-12-13------------10----13-12-13----12----12--10-
-------------------------------------------------------------
-------------------------------------------------------------
---0----------------0--------0----------------0--------------
-------------------------------------------------------------


---5-
---6-
---7-  usar este Dm
---7-
---5-
---5-


        Dm                    F
        Cuando las piedras se fundan
        C            E-----E7
        Con el calor de tu piel
        Dm                 F
        Cuando los años te pudran
        C        E-----E7
        En ti yo viviré

        Dm                    F
        Lo que florezca en tu cuerpo
        C           E------E7
        No se podrá marchitar
        Dm                  F
        Los pétalos son los recuerdos
        C                  E--------E7
        Regados con llanto de libertad


        Am         F
        El tiempo, los sueños
        C            E------E7
        El llanto de libertad...
        Am           F
        El viento se lleva
        C            E----E7      ------- todo se detiene
        Las alas del miedo

            repite todo
Calificar esta versión:
Aviso: Este fichero es trabajo propio de su transcriptor y representa su interpretación personal de la canción. El material contenido en esta página es para exclusivo uso privado, por lo que se prohibe su reproducción o retransmisión, así como su uso para fines comerciales.
Más versiones de La Flor, Anabantha
La Flor
acordes
La Flor
tablatura
Descubre más canciones de Anabantha