Deja Vu (acustico), Anabantha (acordes)

Autor: sonac32 | 22060 visualizaciones

abcsosmfsosmgsosgsosm
ESTA ES LA BUENA

INTRO

  GUITARRA 1
1]-----------------|------------------|
2]-------4-5-4-----|-------4-5-4------|
3]-----6-------6---|-----6-------6----|
4]---6-----------6-|---6-----------6--|
5]-4---------------|-4----------------|
6]-----------------|------------------|

1]-----------------|---------2/4-----|
2]-------4-5-4-----|-------0-----5---|
3]-----6-------6---|-----6-----------|
4]---6-----------6-|---6-------------|
5]-0---------------|-0---------------|
6]-----------------|-----------------|

  GUITARRA 2
1]-9-11-12-|-9-11-12-11-9-11-9---------|---------------|
2]---------|-------------------10h9h10-|-10h12h10-9h10-|
3]---------|---------------------------|---------------|
4]---------|---------------------------|---------------|
5]---------|---------------------------|---------------|
6]---------|---------------------------|---------------|

1]-9-11-12-|-9-11-12-11-9-11-9---------------------|
2]---------|-------------------10h9h10-9----9/10-9-|
3]---------|-----------------------------11--------|
4]---------|---------------------------------------|
5]---------|---------------------------------------|
6]---------|---------------------------------------|

1]--------------7-7---------|-12-11-9-------------------|
2]-------7-9-10-----10-9-10-|---------12-10-9----9----9-|
3]-6-8-9--------------------|-----------------11---11---|
4]--------------------------|---------------------------|
5]--------------------------|---------------------------|
6]--------------------------|---------------------------|

1]-12-11-9-------9----------------------------------|
2]---------12-10---12-10-9-12-10-9------------------|
3]---------------------------------11-9-8-9-8-------|
4]---------------------------------------------9...-|
5]--------------------------------------------------|
6]--------------------------------------------------|

C#m
Siento el tiempo tan vacío
F#m
no puedo volver atrás
B
en lo oscuro del camino
     G#
el abismo espera ya

C#m
El elixir de los sueños
F#m
fue bebido hoy por fin
B
desvanece tus temores
        G#
nunca vuelvas a sufrir

CORO
               A            B
Y el cruel suspenso de las noches
        C#m  B    A 
junto a ti     se fue
            A            B
y en el desierto de mis lágrimas
   C#m  B  A 
hay un    edén
            A            B
Y en lo profundo de los mares
     C#m  B     A 
guardaré    tu amor
           A           B            C#m    G#m   A   B...
Y en esta vida nos volvimos a encontrar ah ah   aAh ah

C#m
Se que alguna vez tus ojos
F#m
me miraron como hoy
B
se que alguna vez lo incierto
       G#
del destino nos ahogó

C#m
Cada noche de desvelos
F#m
fue mi complice tu piel
B
Y el eco de mi corazón
     G#
te llamará otra vez

CORO
               A            B
Y el cruel suspenso de las noches
        C#m  B    A 
junto a ti     se fue
            A            B
y en el desierto de mis lágrimas
   C#m  B  A 
hay un    edén
            A            B
Y en lo profundo de los mares
     C#m  B     A 
guardaré    tu amor
           A           B            C#m    G#m   A   B...
Y en esta vida nos volvimos a encontrar ah ah   aAh ah

   C#m         F#m                B                 G#
1]--------------------------|---------------------------|
2]--------------------------|---------------------------|
3]--------------------------|---------------------------|
4]-----------6-6/9-7-6-7--4-|-4/9-7-6-4-6-6/7--6--4-----|
5]-2/4-6-6/7----------------|-----------------------7-6-|
6]--------------------------|---------------------------|

   C#m         F#m               B                  G#
1]-------------------------|--------------------------|
2]-------------------------|--------------------------|
3]-------------------------|--------------------------|
4]-----------6-6/9-7-6-7-4-|-4/9-7-6-4-6-6/7--6-4-----|
5]-2/4-6-6/7---------------|----------------------7-6-|
6]-------------------------|--------------------------|

CORO
               A            B
Y el cruel suspenso de las noches
        C#m  B    A 
junto a ti     se fue
            A            B
y en el desierto de mis lágrimas
   C#m  B  A 
hay un    edén
            A            B
Y en lo profundo de los mares
     C#m  B     A 
guardaré    tu amoOr
           A           B            C#m    G#m          A    B
Y en esta vida nos volvimos a encontrar ah aAh  ah aAh jah Ah ah

C#m...
       a encontrar...


Cualquier error, queja, duda, comentario o felicitacion jeje
enviar a mi correo por fas! =D
saludos


by SoNacC32
Calificar esta versión:
Aviso: Este fichero es trabajo propio de su transcriptor y representa su interpretación personal de la canción. El material contenido en esta página es para exclusivo uso privado, por lo que se prohibe su reproducción o retransmisión, así como su uso para fines comerciales.
Más versiones de Deja Vu (acustico), Anabantha
Deja Vu (acustico)
acordes
Deja Vu (acustico)
tablatura
Descubre más canciones de Anabantha