Quién Como Tú, Ana Gabriel (tablatura)

Autor: Anónimo | 43939 visualizaciones



AQUI LES MANDO OTRA CANCION OJALA SEA DE SU AGRADO, NO OLVIDEN USAR
CAPO EN EL PRIMER TRASTE PARA QUE SE LES HAGA MAS FACIL TOCARLA.

USAR CAPO 1ER TRASTE

Intro:

e|--3-3-2-3------3-3-2-3-----3-3-2-3----------------
B|---------3--5---------3--5-----------5--3--1------
G|--------------------------------------------------
D|--------------------------------------------------
A|--------------------------------------------------
E|--------------------------------------------------

 SOL                       DO            SOL
El perfume de su almohada tú lo conoces bien
SIm                 DO             RE
y la humedad de sus sábanas blancas también

    DO               MIm             RE
Qué suerte la tuya que puedes tenerlo a tus pies
    DO               MIm                  RE
sintiendo en tu boca sus besos que saben a miel
 DO                      MIm                  RE
Mirando como le hablas de amor el tiempo no se detiene
  DO                        MIm                   RE
y nada tengo yo que esperar aunque me quede en el aire
           DO      RE               SOL
Quién como tú, que día a día puedes tenerle
           DO      RE                       SOL
Quién como tú, que sólo entre sus brazos se duerme
           DO RE7
Quién como tú
           DO      RE                       SOL
Quién como tú, que tarde a tade esperas que llegue
           DO           RE               SOL
Quién como tú, que con ternura curas sus fiebres
           DO RE7
Quién como tú

INTRO

e|--3-3-2-3------3-3-2-3-----3-3-2-3----------------
B|---------3--5---------3--5-----------5--3--1------
G|--------------------------------------------------
D|--------------------------------------------------
A|--------------------------------------------------
E|--------------------------------------------------

SOL                   DO               SOL
Esas noches de locura tú las disfrutas bien
SIm                 DO             RE
y entre sus brazos las horas no pasan, yo lo sé
DO               MIm             RE
Mirando como le hablas de amor el tiempo no se detiene
DO               MIm                  RE
y nada tengo yo que esperar aunque me quede en el aire
           DO      RE               SOL
Quién como tú, que día a día puedes tenerle
           DO      RE               SOL
Quién como tú, que sólo entre sus brazos se duerme
           DO RE7
Quién como tú
CORO (repetir acordes)





Calificar esta versión:
Aviso: Este fichero es trabajo propio de su transcriptor y representa su interpretación personal de la canción. El material contenido en esta página es para exclusivo uso privado, por lo que se prohibe su reproducción o retransmisión, así como su uso para fines comerciales.
Más versiones de Quién Como Tú, Ana Gabriel
Quién Como Tú
acordes
Quién Como Tú
tablatura
Descubre más canciones de Ana Gabriel