Milagros, Amen (tablatura)

Autor: Anónimo | 23394 visualizaciones



 bueno este buen tema de amen,se lo dedico a mi chikita k-lita.pesh
con gran amor,
 y que viva el blue, en especial si es peruano,y mas aun si es de amen...ahi va
  ponganle mucho feeling........



 Intro:

     C
 e-----3-----3---
 b-----3------3--
 g-----0-------0-
 a-----0--------0
 d-----2---------
 e-----3---------
 Soy de todos un amigo,soy de nadie un enemigo
   C             D             G            C          C/Em
 e-------3-----------2-----------3------------3-------------------
 b-----1---1-------3---3-------3---3--------1---1-----------------
 g---2------2----2------2---0-------0-----2-------2--------0----0-
 a------------0------------------------------------0-----0----0---
 d-3-----------------------------------3--------------3----2------
 e-----------------------3----------------------------------------
 Las cosas solo dios las cambiaraaaaaaaaaa
 Am               D             G
 e---------1-----------2------------3---
 b-------2---2-------3--3---------3--3--
 g-----2------2----2-----2------0-----0-
 a---------------0----------------------
 d-0------------------------------------
 e---------------------------3----------

 Y aunque soy inocente de este mundo soy concienteeee
    C             D            G             C         C/Em
 e-------3-----------2-----------3------------3------------------
 b-----1---1-------3---3-------3---3--------1---1----------------
 g---2------2----2------2---0-------0-----2-------2--------0----0-
 a------------0------------------------------------0-----0----0---
 d-3-----------------------------------3--------------3----2-----
 e-----------------------3---------------------------------------
 Que la vida hay que luchar para encontraaaarrr
     Am             D                   G
 e---------1-----------2---------------3---
 b-------2---2-------3--3-----------3----3--
 g-----2------2----2-----2--------0--------0-
 a---------------0---------------------------
 d-0------------------------------------------
 e-----------------------------3--------------

 *Esta parte va con rasgueo pero si quieres lo puedes hacer con otra 
  guitarra que te acompañe

  estribillo:

   C        D            G        C   C/Em
 Y así la vida, compañera y gran amiga
      Am            D               G     G7
 nos empuja hasta llegar a su final.
    C        D            G        C   C/Em
 Y así la vida, compañera y gran amiga
      Am            D               G
 nos empuja hasta llegar a su final.


 Pero no debo enojarme por el trato que han de darme
   C             D             G            C          C/Em
 e-------3-----------2-----------3------------3-------------------
 b-----1---1-------3---3-------3---3--------1---1-----------------
 g---2------2----2------2---0-------0-----2-------2--------0----0-
 a------------0------------------------------------0-----0----0---
 d-3-----------------------------------3--------------3----2------
 e-----------------------3----------------------------------------

 Pues todo rotara   y   cambiaraaaaaaaa..........
    Am             D                   G
 e---------1-----------2---------------3---
 b-------2---2-------3--3-----------3----3--
 g-----2------2----2-----2--------0--------0-
 a---------------0---------------------------
 d-0------------------------------------------
 e-----------------------------3--------------

 y aqui pasare mis dias entre sombrass escondidas
   C             D             G            C          C/Em
 e-------3-----------2-----------3------------3-------------------
 b-----1---1-------3---3-------3---3--------1---1-----------------
 g---2------2----2------2---0-------0-----2-------2--------0----0-
 a------------0------------------------------------0-----0----0---
 d-3-----------------------------------3--------------3----2------
 e-----------------------3----------------------------------------

 Para al final la luz poder hallarrrrrrrrrrrr
   Am             D                   G
 e---------1-----------2---------------3---
 b-------2---2-------3--3-----------3----3--
 g-----2------2----2-----2--------0--------0-
 a---------------0---------------------------
 d-0------------------------------------------
 e-----------------------------3--------------

 *Aqui es lo mismo que el estribillo anterior


 estribillo:

    C        D            G            C   C/Em
Esa luz tan linda, compañera y gran amiga
      Am            D               G
no nos dejará porque es la eternidad.
    C        D            G            C   C/Em
Esa luz tan linda, compañera y gran amiga
      Am            D               G
no nos dejará porque es la eternidad.

*AQUI VIENE EL SOLO....UN POQUITO DIFICIL DE SACAR PERO NO SE DESESPEREN..HAY QUE PONERLE
 SENTIMIENTO NADA MAS(FEELING).........

Solo: C - D - G - C - C/Em - Am - D - G - (G7)(x2)
e|-------------------------------------------------------------------------------------
B|-------------------------------------------------------------8-----------------------
G|--------------------9----------------------------------7/9..---(8).------------------
D|----------5----7/9.---7/9-7.------5------<8>-5-----5----------------(8)-5-----5.-5.--
A|-5/7.-5/7---7-----------------5/7---7/5--------5/7---7--------------------5/7--------
E|-------------------------------------------------------------------------------------

e|--------------------------------------------------------------15----------------------
B|-------------------------------------10-12-13-14-15----15/17.-----15/17-15/17-15.-----
G|---------------------------7-9-11-12----------------14----------------------------14--
D|-----5-<8>-7-5-7-5-----7/9------------------------------------------------------------
A|-5/7---------------7-5----------------------------------------------------------------
E|--------------------------------------------------------------------------------------

e|---------------------------------------------------(18)-15-15/17.--
B|----------------------12/13-10/12------------15-17-----------------
G|-12/14-12-14/16-14-12-------------12.--14/16-----------------------
D|-------------------------------------------------------------------
A|-------------------------------------------------------------------
E|-------------------------------------------------------------------

e|-------10-------------------10-----10-----10-----10-------------------|
B|-12-13----(10)-8---8----<11>---<11>---<11>---<11>---<11>/10-8-----8.--|
G|-----------------9--------------------------------------------9-7-----|
D|----------------------------------------------------------------------|
A|----------------------------------------------------------------------|
E|----------------------------------------------------------------------|


*AQUI LO MISMO.........

 ESTRIBILLO:
  C        D            G             C   C/Em
Esa luz tan linda, compañera y gran amiga
      Am            D               G
no nos dejará porque es la eternidad.            [x3]

    C        D            G             C   C/Em
Esa luz tan linda, compañera y gran amiga
      Am            D                 C - C/Em - Am - G
no nos dejará porque es la eternidad.



                --==--
             º-|¤    ¤|-º
               |RoYkEn|
             º-|¤    ¤|-º
                 __ /
                 |__|
                 |__|
                 |__|
                 |__|
                 |__|
                 |__|
                 |__|
                 |__|
                 |__|
           __    |__|
          /     |__|
             __|__|
           |     |__|__/
           |     ....     /
                ||||    |
            /    ....     
           /     ||||     
          |      .... o     |
          |     [====] o    |
                    _    /
            _____________/
 -------------------------------------------------
Bueno pesh espero que les guste este tema,apoyen el rock peruano pesh
        ·===========================·
      | royken_7@hotmail.com      |
      ·===========================·



Y NO OLVIDEN AGREDECER..............JEJEJE

 BYEEEEEEE TE QUIERO KARLA.......





Calificar esta versión:
Aviso: Este fichero es trabajo propio de su transcriptor y representa su interpretación personal de la canción. El material contenido en esta página es para exclusivo uso privado, por lo que se prohibe su reproducción o retransmisión, así como su uso para fines comerciales.
Más versiones de Milagros, Amen
Milagros
acordes
Milagros
tablatura
Descubre más canciones de Amen