Amor, Amen (tablatura)

Autor: Anónimo | 38512 visualizaciones



Facil hay algunos errores con la letra, pero no la he
 encontrado en la web y la he tenido q sacar al oido,
 ojala este bien ps..xD

 Intro: C Fm (x2)

 C     Fm
 Amor muchas veces lo
                   C
 entiendes muchas veces no
             Fm
 y aunque lo tase mucha gente
      C             G
 aprende uno y tambien uno

 C      Fm
 Atras siempre da lo
             C          Fm
 mismo pedir o quitar siempre
        (Fm/A)       C              G
 te da igual odiar o amar ,odiar o amar

       C    C7            F
 Pero se...ee k nunca me dejaras
        Fm                C                     G
 y aprendi que a veces perder es ganar perder es ganar

         C    C7
 Solo estoy
       F
 escuchandote hablar
          Fm                    C
 y no hago nada mas que escribir y cantar
   G             G7
 escribir y amar

    C       Fm
 siempre estas en cada parte de tu
    C     Fm
 cuidad aunque para el mundo siempre
     C                    G
 el bien es mal siempre bien es mal

   C         Fm                  C
 Cierro los ojos lentamente y veo tu luz
          Fm
 se que estas entre la gente
           C                   G
 vivo en una cruz ya no en la cruz

           C C7
 Y es que hay tanto
              F              Fm
 nichos que cerrar y que la muerte
                   C    G
 sea un bicho nada mas facil de pisar!!

         C C7          F              Fm
 Ahora voy  entre catedras y que siempre
                   C                 G
 se haga tu voluntad ,siempre tu voluntad eh!

  Bb              F       G       C      F1
 Paz y amor para todos y siempre da!!!

Solo: E - Am - E - Am -Am-G- F - Fm - G - G7

e|-------------------------------------------------------------------
B|------------8--8--8--8---------------------------------8-----------
G|---8-8-8-8--8--8--8----------7/8-7-8-8-8-7----7.../8-----<8>/7-----
D|---7-7-7-7--7--7--7----6^-10---------------10-----------------10.--
A|-------------------------------------------------------------------
E|-------------------------------------------------------------------

e|--------<11>-<11>-<11>-8-10-8-8.-10-8-10^/10/11-11/10/8--
B|------8--------------------------------------------------
G|--8/9----------------------------------------------------
D|---------------------------------------------------------
A|---------------------------------------------------------
E|---------------------------------------------------------

e|--------8/10-10^-8-8-10^-10/8-8---------10/11/10--------------------|
B|----8-10-----------------------9.-9-10-9--------13-12---------------|
G|-7/9--------------------------------------------------12/13^-13^-12-|
D|--------------------------------------------------------------------|
A|--------------------------------------------------------------------|
E|--------------------------------------------------------------------|

   C      Fm                                 C
 Amor muchas veces lo entiendes muchas veces no!
              Fm                  C              G         C
 y aunque lo tase mucha gente aprende uno y tambien uno...si


 F1 = x4234x

 *Cualkier duda o error, avisa x msn xfa...XD





Calificar esta versión:
Aviso: Este fichero es trabajo propio de su transcriptor y representa su interpretación personal de la canción. El material contenido en esta página es para exclusivo uso privado, por lo que se prohibe su reproducción o retransmisión, así como su uso para fines comerciales.
Más versiones de Amor, Amen
Amor
acordes
Amor
tablatura
Descubre más canciones de Amen