Escuchame Una Vez, Amango (tablatura)

Autor: xeba_music | 42913 visualizaciones



intro:

e ----5-----5-7-----7-8-----7-7-5-----------------------
B ----5-5-5---5-5-5---5-----5-5-5-----------------------
G ----7-------7-------7-----7-7-7--7-5-5-5-5-5-5-5-5-5--
D ----7-------7-------7-----7-7-7--7-7-7-7-7-7-7-5-5-5--
A ------------------------------------------------------
E ------------------------------------------------------

--------------0--------
------------3----3-----
-4/5-4----2------2-----
--------0--------0-----
-----------------------
-----------------------


Riff1                      Riff2                   Riff3
------------------      --------------------     --------7-------
----------8-------      ----------6---------     --------8-------
----------9-------      ----------7---------     ------9---------
-------10---------      --------8-----------     ----9-----------
----10------------      ------8-------------     --7-------------
--8---------------      ----6---------------     ----------------



   Riff1  x4
Como podría yo ser feliz si no te tengo a mi lado
            Riff2  x4
si ya eres parte de mi como quieres que ahora suelte tu mano
            Riff1  x4
si en cada paso que doy, eres parte de todo lo que hago
        Riff2  x4
mi corazón no me deja engañarlo, y cada vez que te alejas te extraño


en la sgte estrofa son los mismos riffs

De a poco voy entendiendo que nada era como yo creía

nunca pense enamorarme y ahora es la fuerza de mi vida

habiendo tantos peces en el mar, sirena hay solo una

y por eso cada noche de luna, estar sin ti es como una tortura


Riff2                 G
por favor enseñame a vivir sin tí

 CORO

 A                     Bm
Se que cuando tu no estás
              E               A
una parte de mí necesita lo que tu me das
     A7  D                   A
y esta vez, no lo voy a ocultar
  A7          Bm
siempre estarás
             E
siempre estarás



   Riff1  x4
Como te iba querer lastimar y dañar algo sagrado
        Riff2  x4
como sería capaz de arruinar todo lo que hemos logrado
           Riff3  x2                              Riff1  x2
pero lo admito a veces me cuesta y estoy algo agotado (estoy algo agotado)
               Riff2  x4
pero aunque quiera no puedo olvidarte, porque una marca en mí tu dejaste


aki son los mismos acordes del CORO

Se que cuando tu te vas

todo pierde sentido y la vida no se a donde va

y al final, siempre vuelves a mí

como yo vuelvo a tí

(por algo debe ser)

como yo vuelvo a tí (contigo encontré la calma)


aki sube el tono a los sgtes acordes:

 C                     Dm
Se que cuando tu no estás
              G               C
una parte de mí necesita lo que tu me das
        F                    C
y esta vez, no lo voy a ocultar
                   Bb
en mi siempre estarás
           A
solo una vez

Se que cuando tu te vas

todo pierde sentido y la vida no se a donde va

y al final, siempre vuelves a mí

como yo vuelvo a tí

por algo debe ser

contigo encontré la calma





Comentarios del colaborador: a mi me suena igual que ha felipe ¡muy buena cancion ! SE LA DEDICO A NARETH K LA AMOOOOOOOOOOOOOOOOOOOOOOOOOOOOOOOOOOOOOOOOOOOOOOOOOOOOOOOOOOOOOOOOOOOOOOOOOOOOOOOOOOOO NARETH Y SEBA SE AMAN

Calificar esta versión:
Aviso: Este fichero es trabajo propio de su transcriptor y representa su interpretación personal de la canción. El material contenido en esta página es para exclusivo uso privado, por lo que se prohibe su reproducción o retransmisión, así como su uso para fines comerciales.
Más versiones de Escuchame Una Vez, Amango
Escuchame Una Vez
acordes
Escuchame Una Vez
tablatura
Descubre más canciones de Amango