Aguante Bonavena, Almafuerte (tablatura) (ver 2)

Autor: Anónimo | 37704 visualizaciones



INTRO: (tocar rápido y con ligados)
e-|-----------------------|-------------------------|----|-
B-|-----------------------|-------------------------|----|-
G-|-----------------------|-------------------------|----|-
D-|-----------------------|---------------------2-5-|-x4-|-
A-|-4-4--3-2-0--2-0-------|-4-4--3-2-0--2-0-----0-3-|----|-
E-|-2-2-------------3-0-3-|-2-2-------------3-0-----|----|-

Riff 1:
e-|----------|----|---|-
B-|----------|----|---|-
G-|----------|----|---|-
D-|------2-5-|-x3-|---|-
A-|-4-4--0-3-|----|-3-|-
E-|-2-2------|----|-1-|-

F#5 (con riff 1)
Yo y mis pares estamos acá
para dar lo que hay que dar
por sentimiento locura y pasión
se nos ve de negro vestidos. 
F#5
Soy metalero por propia elección
no me rompa las bolas oficial
a fondo blanco estoy festejando
lo mejor del heavy nacional 
A5
Vamos muchachos una vez mas
cantemos todos, así escuchan bien
los trajeaditos que venden perdón
los tropicales y los cyberstones
y esa señora de la televisión 
Soy metalero por propia elección
no me rompa las bolas oficial
a fondo blanco estoy festejando
lo mejor del heavy nacional 
A5
A ver muchachos una vez más
cantemos todos, así escuchan bien
los trajeaditos que venden perdón
los tropicales y los cyberstones. 
Riff 2:
E5 Bb5 A5 G5 
e-|-------------------|-
B-|-------------------|-
G-|-------------------|-
D-|-2-----8---7-----5-|-
A-|-2-----8---7-----5-|-
E-|-0-----6-0-5--0--3-|-
E5 (con riff 2)
Aguante Bonavena
Aguante Bonavena 
SOLO DE GUITARRA
A ver muchachos una vez más 
cantemos todos, así escuchan bien
los trajeaditos que venden perdón
los tropicales y los cyberstones. 
y los descolocaditos de la revolución. 
Aguante Bonavena 
Aguante Bonavena.

Fuente original: LaCuerda
Colaborador original: alejandro [sn4k3_87@hotmail.com]





Calificar esta versión:
Aviso: Este fichero es trabajo propio de su transcriptor y representa su interpretación personal de la canción. El material contenido en esta página es para exclusivo uso privado, por lo que se prohibe su reproducción o retransmisión, así como su uso para fines comerciales.
Más versiones de Aguante Bonavena, Almafuerte
Aguante Bonavena
tablatura
Aguante Bonavena (ver 2)
tablatura
Aguante Bonavena
bajo
Descubre más canciones de Almafuerte