Better Off Alone, Alice Deejay (tablatura)

Autor: IrViNg BaZaN | 36761 visualizaciones

LA CANCION ESTA MÁS QUE FACIL.
ESPERO LES GUSTE Y LES SALGA BIEN.
SALUDOS.

Y RECUERDEN . . . . .


LA VIDA SIN MÚSICA, NO ES VIDA. 


 *(`'•.¸(`'•.¸*¤*¸.•'´)¸.•'´)* 
«´¨`•..¤*¤ B A Z Á N ¤*¤..•´¨`» 
 *(¸.•'´(¸.•'´*¤*`'•.¸)`'•.¸)* 


COPYRIGHT - COPYLEFT 2008
█│║▌ ║││█║▌ │║║█║ 
TODOS LOS DERECHOS 
E IZQUIERDOS RESERVADOS







INTRO:

   e------------------------------------------------------------
   B------------------------------------------------------------
   G------------------------------------------------------------
   D------------------------------------------------------------
   A----12------11--12--------12-----11--12---------------------
   E------------------------------------------------------------


   -------------------------------------------------------------   -------------------------------------------------------------
   -------------------------------------------------------------
   -------------------------------------------------------------
   ----12--12--9--------------------12--12--9-------------------
   ------------------14--14--11-------------------12--12--11----


   ------------------------------------------------------------|
   ------------------------------------------------------------|
   ------------------------------------------------------------|
   ------------------------------------------------------------|
   ----12--12--9--------------------12--12--9------------------|
   ------------------14--14--11-------------------12--12--11---|






YA DESPUES DEL INTRO SE TOCA ESTO EN TODA LA CANCION:

   e-----------------------------------------------------------|
   B-----------------------------------------------------------|
   G-----------------------------------------------------------|
   D---------------------------------11------------------------|
   A----12---12---9---12---12---11-----------------------------|
   E--------------------------------------14---14---11---------|


   -----------------------------------------------------------|
   -----------------------------------------------------------|
   -----------------------------------------------------------|
   ---------------------------------11------------------------|
   ----12---12---9---12---12---11-----------------------------|
   --------------------------------------12---12---11---------|




Y ASÍ SE VA EN TODA LA CANCION HASTA QUE TERMINE.

Calificar esta versión:
Aviso: Este fichero es trabajo propio de su transcriptor y representa su interpretación personal de la canción. El material contenido en esta página es para exclusivo uso privado, por lo que se prohibe su reproducción o retransmisión, así como su uso para fines comerciales.
Más versiones de Better Off Alone, Alice Deejay
Better Off Alone
tablatura
Better Off Alone (ver 2)
tablatura
Descubre más canciones de Alice Deejay