Pal Que Se Va, Alfredo Zitarrosa (tablatura)

Autor: Anónimo | 25439 visualizaciones



Hola a todos, esta es mi primer tablatura, y espero que les guste
es facil y ademas suena muy bien, escuchen la cancion y la sacan a l tique
Aguante Uruguay.

PA`L QUE SE VA - ZITARROSA

INTRO
E----------0-------------------------------------------------------------------1----0---------]
B----1--------3-1----------3------1-----0-----1------------------------------------------3-1--]
G--0-----0--------2-0----0------0-----0-----0------0-2--------0-2-0----------0----0-----0-----]
D------2---------------3------3-----3-----3------3----2-0---3--------20-----------------------]
A-----------------------------------------------------------------------3--2-----2-----2------]
E---------------------------------------------------------------------------------------------]

ESTROFA
E------------------------------------------------------------------------------]
B---------------------------1--------------------------------------------------]
G------00---22-00---------0---0------0-0---------------------------------------]
D--222----33------33-2--2-------3-2--------3-3--22-00--------------------------]
A------------------------------------------------------3-----------------------]
E------------------------------------------------------------------------------]

E------------------------------------------------------------------------------]
B-----------------------------------------1------------------------------------]
G---------------2-2-0-0-----------------0---0-------0-0------------------------]
D-------0-2-3-3---------3-3--2--------2-------3---2------3-3--2-2--00----------]
A-3-3-3----------------------------------------------------------------3-------]
E------------------------------------------------------------------------------]

INTRO
E----------0-------------------------------------------------------------------1----0---------]
B----1--------3-1----------3------1-----0-----1------------------------------------------3-1--]
G--0-----0--------2-0----0------0-----0-----0------0-2--------0-2-0----------0----0-----0-----]
D------2---------------3------3-----3-----3------3----2-0---3--------20-----------------------]
A-----------------------------------------------------------------------3--2-----2-----2------]
E---------------------------------------------------------------------------------------------]

ESTROFA
E------------------------------------------------------------------------------]
B-----------------------------------------1------------------------------------]
G---------------2-2-0-0-----------------0---0-------0-0------------------------]
D-------0-2-3-3---------3-3--2--------2-------3---2------3-3--2-2--00----------]
A-3-3-3----------------------------------------------------------------3-------]
E------------------------------------------------------------------------------]

INTRO
E----------0-------------------------------------------------------------------1----0---------]
B----1--------3-1----------3------1-----0-----1------------------------------------------3-1--]
G--0-----0--------2-0----0------0-----0-----0------0-2--------0-2-0----------0----0-----0-----]
D------2---------------3------3-----3-----3------3----2-0---3--------20-----------------------]
A-----------------------------------------------------------------------3--2-----2-----2------]
E---------------------------------------------------------------------------------------------]

ESTROFA
E------------------------------------------------------------------------------]
B-----------------------------------------1------------------------------------]
G---------------2-2-0-0-----------------0---0-------0-0------------------------]
D-------0-2-3-3---------3-3--2--------2-------3---2------3-3--2-2--00----------]
A-3-3-3----------------------------------------------------------------3-------]
E------------------------------------------------------------------------------]

E----------0-3--------]		DESPUES RASGUEA HACIA ABAJO DE E; A
B--------1------------]
G------0--------------]
D-00------------------]
A----3----------------]
E---------------------]

Fuente original: LaCuerda
Colaborador original: Nicolás Adano [Gokuss4@hotmail.com]





Calificar esta versión:
Aviso: Este fichero es trabajo propio de su transcriptor y representa su interpretación personal de la canción. El material contenido en esta página es para exclusivo uso privado, por lo que se prohibe su reproducción o retransmisión, así como su uso para fines comerciales.
Más versiones de Pal Que Se Va, Alfredo Zitarrosa
Pal Que Se Va
acordes
Pal Que Se Va (ver 2)
acordes
Pal Que Se Va
tablatura
Descubre más canciones de Alfredo Zitarrosa