Necesidad, Alexandre Pires (tablatura)

Autor: Anónimo | 16473 visualizaciones

Intro
          C    G/B  Am        Dm     F    G
E---------------------------------------------
B---------------------------------------------
G------------12---12---9-7-------14----14-----
D-----7-9-10----9----7-----10-12----10----9---
A--10-----------------------------------------
E---------------------------------------------
               C     G/B   Am                Dm       F     G
E----------------15----15----12-12-10-10--10-10-12-14-15-17-15-17-19
B----------12-13----12----10------------13--------------------------
G----12-14----------------------------------------------------------
D8-10---------------------------------------------------------------
A-------------------------------------------------------------------
E-------------------------------------------------------------------
                                      B-------3--
G                              D      G-----0----
Besar esa boca es toda una aventura,  D-0/2------
G                                 D                  E-3/2-----
donde hago piruetas y empiezo a caer,                B-----3---
G                          D         E-2/3-5-3/2---  G-------2-
besar esa boca no tiene clemencia,   B-----------3-
G                            D
besar esa boca es jugar y perder.     E-0/2-3/5-3---
                                      B-------
Am              G              D
Por eso comprendes que te necesito,   E-3/2-----
Am              G             D
por eso besarte es morir y volver.    B-5/3-----
                                      G-----2/4-
G                            D
Caer derrotado en tu boca me gusta,  E--2-3-3/5----
G                                D   B--3-5-5/7----
quedarme vencido y dormido en tu piel,                E-5/3---2--
Am              G              D                      E-7/5--3-3/5
besar esa boca se ha vuelto locura,   E-2/3-5-5--2-
Am              G                D
por eso mi amor no te quiero perder.   B-------3-0------
                                       G------4---2-0-4-
CORO                                   D-0/2-4----------

G             D            C
Maldito el tiempo que se acaba,
  D              G         D
cuando estoy contigo, maldito
   C           D               G
maldito el tiempo que tú no estás.
               D        C
Maldito el tiempo que se esfuma,
   D          G
cuando te preciso.

Am             G             D
Y bendita que seas mi necesidad,
Am              G            D
y bendita que seas mi necesidad.

SOLO
         La la la laaaaa    La lara la la la laa
             G   D   C         Am G    D
E--------------------------------------
B-----------15-15-------------17-17-15-
G----9-11-12--11------------14--12-----
D--12--------------14-12-10------------

          LA LA LA LA LA LA LA
          G         D           C
E-----14-15--15-17-19-17-17-19-15--15-14---
B15-17-------------------------------------

             LA lara LA LA LA laa
       Am            G                 D
B-17-17/15-13--------------------------------
G------------16/14-16-16/14-16-16-16-18-16-14


G                                D
Besarte mi vida es andar por los cielos,  B-----3-5
G                                 D
es no hacer preguntas ni saber por qué,
G                             D
besarte esa boca es dolor y remedio,    B---2-3
G                            D
besar esa boca es ahora y después.

Am             G              D
Por eso eres tu donde me desahogo,
Am              G              D
por eso besarte es morir y volver.

CORO


G          D                  C
Por eso besarte se vuelve ante todo,
   G               Am
es mas allá que el bien,
          G                   D
por eso besarte es morir y volver.

CORO (2)
Calificar esta versión:
Aviso: Este fichero es trabajo propio de su transcriptor y representa su interpretación personal de la canción. El material contenido en esta página es para exclusivo uso privado, por lo que se prohibe su reproducción o retransmisión, así como su uso para fines comerciales.
Más versiones de Necesidad, Alexandre Pires
Necesidad
acordes
Necesidad
tablatura
Descubre más canciones de Alexandre Pires