Dame Tu Aire, Alex Ubago (tablatura)

Autor: Anónimo | 23752 visualizaciones

Hola, les prometí que regresaría pronto y aquí me tienen trayéndoles esta
bella interpretación de Alex Ubago. La verdad, observé las tablaturas ante-
riores y me di cuenta de que tenían unos cuantos errores,  por lo que decidí
esforzarme para sacar los mejor que pude esta canción...
Bueno aquí les va, disfrutenla:

DAME TU AIRE


INTRO

E -----------------------------|----------------------------|-4-----4--
B --------5---4----------------|--------5---4---------------|-5---7----
G ------6---------4-----4-6----|------6---------4-----4-6---|-6--------
D ----6-----6---6-----7-----7--|----6-----6---6-----7-----7-|----------
A --4---------------4----------|--4---------------4---------|----------
E -----------------------------|----------------------------|----------


VERSO:

  C#m               A               C#m              A
E -----------4---------------0--------------------4--------------0--
B --------5---------------2--------------------5--------------2-----
G ------6---------------2------------------6--------------2---------
D ----6---------------2------------------6--------------2-----------
A --4---------------0-----------------4--------------0--------------
E ------------------------------------------------------------------
   Hoy       te  pe-erdí     una vez más a-al despertar


       G#                 A            G#                  A               
E --------------------4------------0-----------------4--------------0--
B ---------------4--------------2----------------4---------------2-----
G ------------5---------------2---------------5----------------2-------
D ---------6----------------2--------------6-----------------2---------
A ------6-----------------0-------------6------------------0-----------
E ------4-------------------------------4------------------------------
   Si soña-ra la rea-ali-dad       y vivie-ra lo que se   fue 


        C#m          A                    C#m             A
E ----------------4-----------0-----------------------4------------0--
B -------------5-----------2-----------------------5------------2-----
G -----------6-----------2---------------------6--------------2-------
D ---------6-----------2---------------------6--------------2---------
A -------4-----------0---------------------4--------------0-----------
E --------------------------------------------------------------------
   Mi humor       míralo      pintando un cu-adro sin co-lor


         G#                 A             G#                  A
E ---------------------4-------------0-----------------4--------------0--
B ------------------4-------------2-----------------4---------------2----
G --------------5---------------2----------------5----------------2------
D -----------6----------------2---------------6-----------------2--------
A --------6-----------------0--------------6------------------0----------
E --------4--------------------------------4-----------------------------
   Puedo ver un pai-sa-je  gris     que refle-e-eja mi interior



        A         B
E ------0---------X--
B ------2---------4--
G ------X---------4--
D ------2---------4--
A ------0---------2--
E ------0---------2--
   Y en él,  y en él 





CORO:

A       E               B              C#m              A 
Palomas blancas vuelan raso, sobre el tejado brilla el sol

       E           B
Y ríen todos menos yo…

           A          E               B           C#m
Que ahora soy un reo más, pidiendo a gritos la verdad

             A           E               B      C#m
Mi vida eres tú, y si te vas vendrá la oscu-u-ridad...

         A           E             B         C#m
Dame tu aire un día más, para que pueda respirar

                A              E               B     C#m
Que un rayo de luz me haga brillar, que muera so-o-ledad...



   C#m           A                C#m             A
E -----------4------------0------------------4--------------0--
B --------5------------2-----------------5--------------2------
G ------6------------2-----------------6--------------2--------
D ----6------------2-----------------6--------------2----------
A --4------------0-----------------4--------------0------------
E -------------------------------------------------------------
   Hoy       soñaré        que despierto jun-to a ti


       G#                 A            G#                    A
E --------------------4------------0-------------------4--------------0--
B ---------------4--------------2----------------4-----------------2-----
G ------------5---------------2---------------5------------------2-------
D ---------6----------------2--------------6-------------------2---------
A ------6-----------------0-------------6--------------------0-----------
E ------4-------------------------------4--------------------------------
   Y te canto cancio-nes que          a no-o-che te-es-cribi-i


          C#m           A                C#m             A
E ------------------4------------0------------------4--------------0--
B ---------------5------------2------------------5--------------2-----
G -------------6------------2-----------------6--------------2--------
D -----------6------------2-----------------6--------------2----------
A ---------4------------0-----------------4--------------0------------
E --------------------------------------------------------------------
   Y llegaré       por  ti       a donde na-di-e pu-do   ir


         G#                 A            G#                 A
E ----------------------4------------0------------------4---------------0--
B -----------------4--------------2------------------4---------------2-----
G --------------5---------------2-----------------5---------------2--------
D -----------6----------------2---------------6----------------2-----------
A --------6-----------------0-------------6-----------------0--------------
E --------4-------------------------------4--------------------------------
   Puedo ver el me-jor  lu-gar       de  tan-tos que co-no-cí 


        A         B
E ------0---------X--
B ------2---------4--
G ------X---------4--
D ------2---------4--
A ------0---------2--
E ------0---------2--
   Y en él,  y en él 



CORO:

A       E               B              C#m              A 
Palomas blancas vuelan raso, sobre el tejado brilla el sol

       E           B
Y ríen todos menos yo…

           A          E               B           C#m
Que ahora soy un reo más, pidiendo a gritos la verdad

             A           E               B      C#m
Mi vida eres tú, y si te vas vendrá la oscu-u-ridad...

         A           E             B         C#m
Dame tu aire un día más, para que pueda respirar

                A              E               B      A
Que un rayo de luz me haga brillar, que muera so-o-ledad...



PUENTE:

    A                   E     B                   C#m
E --12--12--12--11--9---7--|--11--11--11--9---11--12--11--9---
B --14--14--14--12--10--9--|--12--12--12--10--12--14--12--10--
G -------------------------|----------------------------------    A-E-B-C#m
D -------------------------|----------------------------------     (piano)
A -------------------------|----------------------------------
E -------------------------|----------------------------------



           A          E               B           C#m
Que ahora soy un reo más, pidiendo a gritos la verdad

             A           E           B          C#m
Mi vida eres tú, y si te vas me cegará la oscuridad...

         A           E             B         C#m
Dame tu aire un día más, para que pueda respirar

                A              E               B     C#m
Que un rayo de luz me haga brillar, que muera so-o-ledad...



¿Hermosa rola no?, espero que hayan quedado satisfechos...
Para tí anairam con mucho cariño... MATM

Fuente original: LaCuerda
Colaborador original: Miguel Ángel Carrizo De Jesús [cybermikeld@hotmail.com]
Calificar esta versión:
Aviso: Este fichero es trabajo propio de su transcriptor y representa su interpretación personal de la canción. El material contenido en esta página es para exclusivo uso privado, por lo que se prohibe su reproducción o retransmisión, así como su uso para fines comerciales.
Más versiones de Dame Tu Aire, Alex Ubago
Dame Tu Aire
acordes
Dame Tu Aire (ver 2)
acordes
Dame Tu Aire (ver 3)
acordes
Dame Tu Aire
tablatura
Descubre más canciones de Alex Ubago