Ahora Que No Estas, Alex Ubago (tablatura)

Autor: Anónimo | 18321 visualizaciones

Bueno, éste es el intro de ésta bonita canción... espero
que la disfruten y si encuentran algún error me escriben
a mi mail. También me pueden pedir ayuda si componen para
decirles como pueden arreglar sus rolas =)... bueno ay
lo tienen:

INTRO
E -----------------------------------------------------------------
A -----------------------------------------------------------------
D -----------------------------------------------------------------
G -9--9--9--9---------8--8---8--8------7--7--7--7-----6--6--6--6------
B --9--9--9--9----------8--8--8--8------7--7--7--7-------6--6--6--6----
e -------------7-4-----------------9---------------5-2-------------7---

E -----------------------------------------------------------------
A -----------------------------------------------------------------
D -----------------------------------------------------------------
G -9--9--9--9------8--8---8--8------7--7--7--7---------9------9--
B --9--9--9--9-------8--8--8--8------7--7--7--7---------9-----9--
e -------------7-4--------------9---------------5-2-----------3--

Me pueden contactar a mi mail (k viene akí) para cualkier duda
o comentario o consejo...
Y recuerden... la música es vida y la vida es tuya ;), disfrútenla!!!
Se despide de ustedes, el trovador Jetamon

Fuente original: LaCuerda
Colaborador original: José Enrique Treviño Alvarado [kyke_marti@hotmail.com]
Calificar esta versión:
Aviso: Este fichero es trabajo propio de su transcriptor y representa su interpretación personal de la canción. El material contenido en esta página es para exclusivo uso privado, por lo que se prohibe su reproducción o retransmisión, así como su uso para fines comerciales.
Más versiones de Ahora Que No Estas, Alex Ubago
Ahora Que No Estas
acordes
Ahora Que No Estas
tablatura
Descubre más canciones de Alex Ubago