Ese Silencio, Alex Ibarra (tablatura)

Autor: jhonadan perez | 25869 visualizaciones



BUENO PUES MUCHACHOS ESTA ES UNA CORRECCIOM DE LA PROMERA CANCION QUE SUBI AHORA SI ESTA COMPLETA BUENO ESO ESPÉRO DEJEN UNOS COMENT PARA VER COMO LES PARECIO O PEDIR UNA CANCION





Intro (esta a dos guitarras, este es un arreglo a una)
e-----3*2----------10*9-------------8*7----7-------------|
B---------3-------------10---------8----8--8-------------|
G---2-------2----9---------9-----7---------7-------------|
D-0---------------------------0--------------------------|
A--------------0-----------------------------------------|
E----------------------------(3)-------------------------|


e------------3-----3*2----------10*9-----------8*7----7--|
B----------3-----------3------------10--------8----8--8--|
G--------0-------2-------2----9--------9----7---------7--|
D------0-------0-------------------------0---------------|
A----2----------------------0----------------------------|
E--3------------------------------------(3)--------------|


   Hoy                          te vuelvo a mirar
e----2-------2-------------2--------------0---------0----|
B---3------3---3---3-----3---3---3-------2--2--2---2--2-2|
G--2-----2-------2-----2-------2-------2-----2----2----2-|
D-0----0-------------0-----------------------------------|
A------------------------------------0-----------0-------|
E--------------------------------------------------------|

 entiende q      no me puedo   controlar
e-------3--------------0-------------2-------|
B-----3---3---3------2---2---2-----3---3---3-|
G---0-------0------2-------2-----2-------2---|
D------------------------------0-------------|
A----------------0---------------------------|
E-3------------------------------------------|

(Ese es el modo en q se rasguea la guitarra en toda 
la cancion, los acordes son tomados de aqui, el intro
me lo pidio un amigo, suerte)

     A
te vuelvo a pensar
         G
tal vez no pueda pasar
            A
pero me encanta imaginar

      Bm
q te beso suavemente
        A
q no existe otra gente
         Bm
por tu amor soy un demente
       G           A
y eso no fue de repente

   D
perdoname
      A
no quiero molestar
     G
mas no puedo evitar
            A
me vuelves loco al caminar

    Bm
no se como escapar
       A
de mi cruda realidad
     Bm
te llevo aqui en mi mente
     G              A
tu siempre estas presente

D            A           Bm
pretendo q surga ese silencio
G             A              D    A7    
para poder robarte el primer beso
D            A         Bm
pretendo q surga ese  momento
G          A              D   
el momento de nuestro encuentro

D          A              Bm
no puedo evitar este sentimiento
                  G   
y menos puedo evitar
     A        
el enamorarme mas
     D
de ti

e-----3*2----------10*9-------------8*7----7-------------|
B---------3-------------10---------8----8--8-------------|
G---2-------2----9---------9-----7---------7-------------|
D-0---------------------------0--------------------------|
A--------------0-----------------------------------------|
E----------------------------(3)-------------------------|


e------------3-----3*2----------10*9-----------8*7----7--|
B----------3-----------3------------10--------8----8--8--|
G--------0-------2-------2----9--------9----7---------7--|
D------0-------0-------------------------0---------------|
A----2----------------------0----------------------------|
E--3------------------------------------(3)--------------|


D      A              G
ves, si es q algo ves
             A
no puedo dejar de pensarte
    D
una y otra vez
  A
hasta el amanecer
      G
pues busco tu querer 
       A
como hacerte comprender?
       Bm
q por ti daria todo
      A
debe ser de algun modo
       Bm
q tan solo por un beso
     G             A
por siempre seré tu preso


D            A           Bm
pretendo q surga ese  silencio
G             A              D    A7    
para poder robarte el primer beso
D            A         Bm
pretendo q surga ese momento
G          A              D   
el momento de nuestro encuentro

D          A              Bm
no puedo evitar este sentimiento
                  G   
y menos puedo evitar
     A        
el enamorarme mas
     D
de ti

e-----3*2----------10*9-------------8*7----7-------------|
B---------3-------------10---------8----8--8-------------|
G---2-------2----9---------9-----7---------7-------------|
D-0---------------------------0--------------------------|
A--------------0-----------------------------------------|
E----------------------------(3)-------------------------|


e------------3-----3*2----------10*9-----------8*7----7--|
B----------3-----------3------------10--------8----8--8--|
G--------0-------2-------2----9--------9----7---------7--|
D------0-------0-------------------------0---------------|
A----2----------------------0----------------------------|
E--3------------------------------------(3)--------------|

D               A
y hoy tu te preguntas
   G              A
q pq lo digo asi?
D               A        
la razon es q con mi musica
G                                D  A    G    A
es como mejor te lo puedo decir

uuuhhh
G                                D
es como mejor te lo puedo yo decir
ESTA PARTE ES EL FINAL Y ESTA PERFECTO Y MUY FACIL

e-2/7--5--3--2--1/2---------|
B-3/8--7--5--3--2/3~~~------|
G---------------------------|
D---------------------------|
A---------------------------|
E---------------------------|






Calificar esta versión:
Aviso: Este fichero es trabajo propio de su transcriptor y representa su interpretación personal de la canción. El material contenido en esta página es para exclusivo uso privado, por lo que se prohibe su reproducción o retransmisión, así como su uso para fines comerciales.
Más versiones de Ese Silencio, Alex Ibarra
Ese Silencio
acordes
Ese Silencio
tablatura
Descubre más canciones de Alex Ibarra