Destination Calabria, Alex Gaudino (tablatura) (ver 3)

Autor: xxblackxpinkxx | 21324 visualizaciones



"Destination Calabria (Destination Unknown)", DJ Alex Gaudino
===========================================

*Por: Sebastián Ara. (Buenos Aires, Argentina, 2008)
*Email MSN: playing.the.angel_@hotmail.com & playing.the.angel@vampirefreaks.com
===========================================

RIFF PRINCIPAL (Saxo):
e|-----------------------------------------------
B|-----------------------------------------------
G|-----------------------5-----------------------
D|----7----7----------7-----------7-------------
A|-5-----5---------8-----------7-----------------
E|-----------------------------------------------

Bajo (Riff principal y estribillo):
G|------------2------------2...----------------
D|0x0x0-0h2h3-----3-3-3-2----------------------
A|---------------------------------------------
E|---------------------------------------------

Bajo (Versos):
G-------------------------
D-------------------------
A-5-5-3-5-5-3-5-5-5-3-5-5-
E-------------------------

Bajo (Pre-estribillo):
G-------------------2-
D-0-0-0-0-0-0-0h2h3---
A---------------------
E---------------------




-Parte callada:

e-----------------------------------------------
B-----------------------------------------------
G-------------------------17----------------------
D----19-----19---------19----------19-------------------
A-17-----17---------20----------19----------------------
E-----------------------------------------------
[repite algunas veces]

e----------------
B----------------
G----------------
D----19-----19---
A-17-----17------
E----------------
[repite más rapido]


e|-----------------------------------------------
B|-----------------------------------------------
G|-----------------------5-----------------------
D|----7----7----------7-----------7-------------
A|-5-----5---------8-----------7-----------------
E|-----------------------------------------------
[Saxo solo]


-Vuelve al Riff Principal

-Repite Versos

-Vuelve al Riff Principal
===========================================





Calificar esta versión:
Aviso: Este fichero es trabajo propio de su transcriptor y representa su interpretación personal de la canción. El material contenido en esta página es para exclusivo uso privado, por lo que se prohibe su reproducción o retransmisión, así como su uso para fines comerciales.
Más versiones de Destination Calabria, Alex Gaudino
Destination Calabria
tablatura
Destination Calabria (ver 2)
tablatura
Destination Calabria (ver 3)
tablatura
Destination Calabria (ver 4)
tablatura
Destination Calabria
teclado
Descubre más canciones de Alex Gaudino