Cuidare De Ti, Alex Campos (tablatura)

Autor: guisaenz | 33134 visualizaciones



e------9-11------9-11-----8-9-----8-9--------- 
B----9---------9--------9-------9------------- 
G-10--------10--------8-------8--------------- 
D--------------------------------------------- 

e-----6-8-----6-8----------13s14-13-11-------- 
B---6-------6-----------11-------------14-13-- 
G-6-------6----------11----------------------- 
D-----------------11--------------------------


y eso es toda el inicio graxias





Calificar esta versión:
Aviso: Este fichero es trabajo propio de su transcriptor y representa su interpretación personal de la canción. El material contenido en esta página es para exclusivo uso privado, por lo que se prohibe su reproducción o retransmisión, así como su uso para fines comerciales.
Más versiones de Cuidare De Ti, Alex Campos
Cuidare De Ti
acordes
Cuidare De Ti
tablatura
Cuidaré De Tí
bajo
Descubre más canciones de Alex Campos