Come On, Alex Campos (tablatura)

Autor: Anónimo | 46775 visualizaciones



El circulo de notas es: Dm / F / C / A7

"Intro"


e -----------------------
B ---5-6s8-6---5-6s8-6---
G -----------------------


e -----------------------
B ---5-6s8-5---5-6s8-5---
G------------------------




*solo*

e -15-15-15-15-13-13-13-13-12-12-12-12------------------------
B ------------------------------------13-13-13-13-10-10-10-10-
G ------------------------------------------------------------
A ------------------------------------------------------------



e -----------------------------------------------------------18-19-20-21-
B -----------------------------------------------------------18-19-20-21-
G -12-12-12-12-10-10-10-10-9-9-9-9-9-9b9-9-10-12-13-15-16-17-18-19-20-21-
A -----------------------------------------------------------------------


ºFinalº

e ---8p10-8--------8p10-8--------
B ------------10------------10---
G -------------------------------


e ---8p10-8--------8p10-8--------
B ------------13------------13---
G -------------------------------



HOLA A TODOS AMIS AMIGOS
AKI ESTOY OTRA VEZ
ESPERO K ESTE BIEN LA TABLATURA
DE TODAS FORMAS ES SOLO PARA AYUDARLES UN POCO
Y RECUERDEN QUE LA GLORIA ES DE CRISTO
DIOS LES BENDIGA


ATT  EL_GATO





Calificar esta versión:
Aviso: Este fichero es trabajo propio de su transcriptor y representa su interpretación personal de la canción. El material contenido en esta página es para exclusivo uso privado, por lo que se prohibe su reproducción o retransmisión, así como su uso para fines comerciales.
Más versiones de Come On, Alex Campos
Come On
acordes
Come On (ver 2)
acordes
Come On
tablatura
Come On (ver 2)
tablatura
Descubre más canciones de Alex Campos