Busco, Alex Campos (tablatura)

Autor: Anónimo | 44419 visualizaciones



E -------------------------------------------------------1-------/
B -----------1------------1----------------0---------1-----------/
G -------0------------0----------------0-------------------------/
D ---2-----------2-----------------0------------3----------------/
A ---------------------------------------------------------------/
E ---------------------------------------------------------------/

Empieza estrofa
                                                        (*2)
E --------------------------------------------------0--/-----------1-/
B --------1-----------1------------0----------0--------/-------1-----/
G -----0----------0-----------0------------------------/-------------/
D --2---------2-----------0-------------2--------------/----3--------/
A -----------------------------------------------------/-------------/
E -----------------------------------------------------/-------------/
  (lo que esta encerrado entre los slash, se hace cuando se repite)

   Am7                               C
Busco en la distancia y me dice que no
                             G
No será tan fácil como yo creí
                                   E
No me es suficiente conservar tu amor
                                     Am7
Más que mil palabras donde no hay razón.
                                    C
Pienso que estas lejos pero estas aquí,
                           G
Dime como hago para yo sentir,
                                    F
Creo que eres bueno pero hoy te mentí
                                C    G/Am
Y sin darme cuenta me miento a mi.

Riff 2
B -------10---12--13------10---8--------9--/
Acompañado por los acordes:
         Am       C       G            C#m7

(Aquí la guitarra 1 va haciendo el riff del intro
Mientras que la guitarra  2 con distorsión hace los acordes)

                           Am
yo te buscaba y no encontraba
                            C
Buscaba el brillo de tu mirada
                            G
Sin darme cuenta me equivocaba

Era la fama a quien yo anhelaba.

                         Am
Vivía cayendo en el intento,
                             C
Sin darme cuenta muerto estaba
                            G
Moría tan lejos de tus pisadas

No fue tu amor el que buscaba.

(En el coro se usa el 3 riff, lo hace la guitarra 2)
   Escúchenlo bien para que lo puedan sacar

G---10/12--------10----7------9/10-9--10----7----9/10-9---7-/1
G---10/12--------10----7------9/10-9--10----14--7----------/ 2
(1 y 2 para diferenciar las dos partes del riff)

Coro
C            G
Busco y te encuentro
Dm/F      Am-G
Eres tan cierto
C         G
Grito tu nombre
Dm        Am-G      en LA segunda vuelta cambia por: tu mi consuelo
Dame tu aliento.    Mi amor eterno)

RIFF 4 (sintetizador o trompetas)
B--10----8------5-----10/8---8-----3-----5-----/
  Acompañado por
    A           C             G         C#m7

                                    Am
Hoy que te encuentro, hoy que te siento
                        C
No perderé este privilegio,
                           G
Serás mi amor,  serás mi todo

Tu mi Señor, tu mi socorro
                         Am
Yo reconozco que soy pequeño
                              C
Que yo sin ti soy como el viento
                                G
Que no es mi mundo el que yo quiero
                                 F
Quiero tus brazos, quiero tus cielos





Calificar esta versión:
Aviso: Este fichero es trabajo propio de su transcriptor y representa su interpretación personal de la canción. El material contenido en esta página es para exclusivo uso privado, por lo que se prohibe su reproducción o retransmisión, así como su uso para fines comerciales.
Más versiones de Busco, Alex Campos
Busco
acordes
Busco
tablatura
Descubre más canciones de Alex Campos