Ambrosia, Alesana (tablatura)

Autor: scorpionwinged9409 | 20864 visualizaciones



AMBROSIA

CANTA: ALESANA

RITMO: METAL CORE
culquierduda contacten mi correo scorpionwinged@hotmail.com

INTRO
|-------------------------------------------------------------------------|
|-------------------------------------------------------------------------|
|--------------------------------------------------------------6--4--3----|
|--6-4-3-4-4-3-----6-4-3-4-4-3-----6-4-3-4-4-3-----6-4-3-3-4---6--4--3----|
|--------------4---------------4---------------4---------------4--2--1----|
|----------------6---------------6---------------6------------------------|

|-------------------------------------------------------------------|
|-------------------------------------------------------------------|
|------------------------------------------------------------8------|
|--6-4-3-4-4-3-----6-4-3-4-4-3-------8-8-8-8-8-8-8-8---6-8-9--------|
|--------------4---------------4-----8-8-8-8-8-8-8-8----------------|
|----------------6---------------6---6-6-6-6-6-6-6-6----------------|
                                     . . . . . . . .

VERSE
ONE KING OF ROSES...
|------------------------------------------------------------| /
|------------------------------------------------------------| /
|----------------------------8---------------------------9---| /
|--6-8-9-6-8-9-6-8-9-6-8-9-6---6-8-9-6-8-9-6-8-9-6-8-9-6-----| /
|------------------------------------------------------------| /
|------------------------------------------------------------| /
                                                               /   
|---------------------------------------|                      /  [x2] 
|---------------------------------------|                      /
|--8-8-8-8-8-8-8-9--8-8-8-8-8-8-8-9-----|                      /
|--6-6-6-6-6-6-6-7--6-6-6-6-6-6-6-7-----|                      /
|---------------------------------------|                      /
|---------------------------------------|                      /

|-------------------------------|
|-------------------------------|
|--------------------------8----|
|--6-8-9-6-8-9-6-8-9-6-8-9------|
|-------------------------------|
|-------------------------------|

CHORUS
I CURSE THE DAY MY .....
|-----------------------------------------------------------------------|
|-----------------------------------------------------------------------|
|---------------------------------------------------1/6--1/6--1/6--1/6--|
|--6-6-6-6-6-6-6-6-4-4-4-4-4-4-4-4-2-2-2-2-2-2-2-2--1/6--1/6--1/6--1/6--|
|--6-6-6-6-6-6-6-6-4-4-4-4-4-4-4-4-2-2-2-2-2-2-2-2----------------------|
|--4-4-4-4-4-4-4-4-2-2-2-2-2-2-2-2-0-0-0-0-0-0-0-0----------------------|

VERSE 
IN MY PERFECTION....
|------------------------------------------------------------| /
|------------------------------------------------------------| /
|----------------------------8---------------------------9---| /
|--6-8-9-6-8-9-6-8-9-6-8-9-6---6-8-9-6-8-9-6-8-9-6-8-9-6-----| /
|------------------------------------------------------------| /
|------------------------------------------------------------| /
                                                               /   
|---------------------------------------|                      /  [x2] 
|---------------------------------------|                      /
|--8-8-8-8-8-8-8-9--8-8-8-8-8-8-8-9-----|                      /
|--6-6-6-6-6-6-6-7--6-6-6-6-6-6-6-7-----|                      /
|---------------------------------------|                      /
|---------------------------------------|                      /

|-------------------------------|
|-------------------------------|
|--------------------------8----|
|--6-8-9-6-8-9-6-8-9-6-8-9------|
|-------------------------------|
|-------------------------------|

CHORUS
I CURSE THE DAY MY .....
|-----------------------------------------------------------------------|
|-----------------------------------------------------------------------|
|---------------------------------------------------1/6--1/6--1/6--1/6--|
|--6-6-6-6-6-6-6-6-4-4-4-4-4-4-4-4-2-2-2-2-2-2-2-2--1/6--1/6--1/6--1/6--|
|--6-6-6-6-6-6-6-6-4-4-4-4-4-4-4-4-2-2-2-2-2-2-2-2----------------------|
|--4-4-4-4-4-4-4-4-2-2-2-2-2-2-2-2-0-0-0-0-0-0-0-0----------------------|

PRE BRIDGE (JAJAJ)
|---------------------------------------------------------------------------------------------|
|---------------------------------------------------------------------------------------------|
|--4-4-4-4-3-3-3-3------------------------------4-4-4-4-3-3-3-3-------------------------------|    [x2]
|--4-4-4-4-3-3-3-3--------------------------1---4-4-4-4-3-3-3-3----------------------------1--|
|--2-2-2-2-1-1-1-1--------------------------1---2-2-2-2-1-1-1-1----------------------------1--|
|------------------4-6-7-4-6-7-4-6-7-4-6-7-----------------------4-6-7-4-6-7-4-6-7-4-6-7-----|
                                                                 . . . . .  . . . . . . .

BRIDGE
OHH YEAAHHH!!!
|-------------------------------------|
|-------------------------------------|
|-----8-6--------------8-6------------| 
|--1--8-6-6--6-6-4--1--8-6-6--6-6-4---| [x2]
|--1--6-4-6--6-6-4--1--6-4-6--6-6-4---|
|---------4--4-4-2---------4--4-4-2---|
             .

|-------------------------------------|
|-------------------------------------|
|-----8-6--8------6---8-6-----6-8-6---| 
|--1--8-6-----6-8---8-----6-8---------| [x2]
|--1--6-4-----------------------------|
|-------------------------------------|

NOW SHES GOOD AS GOOOOOLD!!!
                      |-----------|
                      |-----------|
                      |--------8--|
                      |--6-8-9----|
                      |-----------|
                      |-----------|

CHORUS
I CURSE THE DAY MY .....
|-----------------------------------------------------------------------|
|-----------------------------------------------------------------------|
|---------------------------------------------------1/6--1/6--1/6--1/6--|
|--6-6-6-6-6-6-6-6-4-4-4-4-4-4-4-4-2-2-2-2-2-2-2-2--1/6--1/6--1/6--1/6--| [x2]
|--6-6-6-6-6-6-6-6-4-4-4-4-4-4-4-4-2-2-2-2-2-2-2-2----------------------|
|--4-4-4-4-4-4-4-4-2-2-2-2-2-2-2-2-0-0-0-0-0-0-0-0----------------------|

OUTRO
|------------------------------------------------|
|------------------------------------------------|
|--4-4-4-4-3-3-3-3-------------------------------| 
|--4-4-4-4-3-3-3-3--------------------------1----|
|--2-2-2-2-1-1-1-1--------------------------1----|
|------------------4-6-7-4-6-7-4-6-7-4-6-7-------|
                   . . . . . . . . . . . .





Calificar esta versión:
Aviso: Este fichero es trabajo propio de su transcriptor y representa su interpretación personal de la canción. El material contenido en esta página es para exclusivo uso privado, por lo que se prohibe su reproducción o retransmisión, así como su uso para fines comerciales.
Más versiones de Ambrosia, Alesana
Ambrosia
acordes
Ambrosia
tablatura
Descubre más canciones de Alesana