Llevame Al Cielo, Aleks Syntek (tablatura)

Autor: Anónimo | 34629 visualizaciones

ALEkS SynTeK y LOs Kumbia Kings


CAPO I

[intro]

   G                    A
e--3--------------------0----------------------------------
B--3--------------------2----------------------------------
G--4--------------------2----------------------------------
D--0--------------------2----------------------------------
A--2--------------------0----------------------------------
E--3-------------------------------------------------------
     yo no sabia lo que era sufrir, no conocia la soledad

   C
 --0------------------------------------------------------------------
 --1------------------------------------------------------------------
 --0------------------------------------------------------------------
 --2------------------------------------------------------------------
 --3------------------------------------------------------------------
 --3------------------------------------------------------------------
   hoy solamente tengo tristeza y miedo no tengo fuerzas para aceptar 

   G                                A
 --3--------------------------------0-------------------------------------------
 --3--------------------------------2-------------------------------------------
 --4--------------------------------2-------------------------------------------
 --0--------------------------------2-------------------------------------------
 --2--------------------------------0-------------------------------------------
 --3----------------------------------------------------------------------------
     me sobran las lagrimas para llorar, ahora yo vivo tan solo de tu recuerdo 

         Cmaj7 										   G
 --------3------------------------------------------------------------------------------------[3]--
 --------5------------------------------------------------------------------------------------[3]--
 --------4------------------------------------------------------------------------------------[0]--
 --------5------------------------------------------------------------------------------------[0]--
 --------3------------------------------------------------------------------------------------[2]--
 ---------------------------------------------------------------------------------------------[3]--
   tan injusto ha sido el cielo por no llevarme a mi, tan injusta fue la vida por engañarme asi....


   G              Dsus            Cadd9          Dsus
 ------3---------------0--------------0---------------0-------------
 ---------3---3-----------3---3----------3---0-----------3---3------
 ----0------0--------2------2-------0------0--------2------2--------
 -----------------0------------------------------0------------------
 ---------------------------------3---------------------------------
 --3---------------------------------------------------------------- [2x]


[verso] [NOTA: los acordes se tocan en medio tiempo despues de la palabra, 
               significando que es en el + de uno, + 1, tipo reggae]

   Cmaj7                        Bm7                          Em
 --3----------------------------2----------------------------0-------
 --3----------------------------3----------------------------0-------
 --4----------------------------2----------------------------0-------
 --5----------------------------4----------------------------2-------
 --3----------------------------2----------------------------2-------
 --3---------------------------------------------------------0-------
     yo no sabia lo que es el dolor, entre nosotros todo es amor

                             F
 ----------------------------1------------------
 ----------------------------1------------------
 ----------------------------2------------------
 ----------------------------3------------------
 ----------------------------3------------------
 -----------------------------------------------
     en nuestra casa eras la luz del dia


 Cmaj7                     Bm7                        Em    
      cada mañana estabas aqui, cada momento yo era feliz

                             F
  nunca pensaba que esto se acabaria


[pre-coro]

   Am7            D/Bm              Cadd9         Dsus
 --0--------------0-----------------0-------------0------
 --1--------------3-----------------3-------------3------
 --0--------------2-----------------0-------------2------
 --2--------------0-----------------2-------------0------
 --0--------------2-----------------3--------------------
 --------------------------------------------------------
   tan injusto ha sido el cielo por no llevarme a mi

   Am7         D/Bm            Cadd9    Dsus4  D
 -----------------------------------------3----2--------------
 -----------------------------------------3----3--------------
 -----------------------------------------2----2--------------
 -----------------------------------------0----0--------------
 -------------------------------------------------------------
 -------------------------------------------------------------
   tan injusta fue la vida por engañarme asi.....llevame al 


[coro]

  G      D/F#    Em7
 -3------2-------0----------------------------------------
 -3------3-------3----------------------------------------
 -0------2-------0----------------------------------------
 -0------0-------2----------------------------------------
 -2--------------2----------------------------------------
 -3------2-------0----------------------------------------
..cielo, tiempo, dejame verla como la recuerdo en mis

  Cadd9  D/Bm    Am7                 Dsus
 -0------0-------0-------------------0--------------------
 -3------3-------1-------------------3--------------------
 -0------2-------0-------------------2--------------------
 -2------0-------2-------------------0--------------------
 -3------2-------0----------------------------------------
 ---------------------------------------------------------
  sueño, tiempo, no me separes ni un solo momento
 

 G       D/F#    Em7      
  cielo, tiempo, todo daria por verla de nuevo

 Cadd9    D/Bm    Am7                D7
  te pido tiempo, tu la arrancaste y te la llevaste de mi



[solo] [para guitarra synteklados]


  Cmaj7                      Bm7                Em                   F
 ----7-8-5-7-3-5-2-3-0-2-3-5------(5)(3)-------(7)---(10)----(8)-(7)-----------
 ----------------------------3-----------(3)-------(8)--------------(8)--------
 --7---------------------------------------------------------------------------
 ------------------------------------------------------------------------------
 ------------------------------------------------------------------------------
 ------------------------------------------------------------------------------

 [F]                                    Cmaj7
 ------------------------------------5/7-3----------------
 ----------------------------------8-7/8-5----------------
 --4--5--7--4--5--7---9--5--7---9--9----------------------
 --5--7--9--5--7--9--10--7--9--10-------------------------
 ---------------------------------------------------------
 ---------------------------------------------------------

[verso]


 Cmaj7                      Bm7                     Em
   yo no sabia lo que era sufrir, no conocia la soledad

                           F
   hoy solamente tengo tristeza y miedo 

 Cmaj7                       Bm7                             Em
   no tengo fuerzas para aceptar, me sobran lagrimas para llorar, 

                             F
   ahora yo vivo tan solo de tu recuerdo 


[pre-coro]

   Am7            D/Bm              Cadd9         Dsus
 --0--------------0-----------------0-------------0------
 --1--------------3-----------------3-------------3------
 --0--------------2-----------------0-------------2------
 --2--------------0-----------------2-------------0------
 --0--------------2-----------------3--------------------
 --------------------------------------------------------
   tan injusto ha sido el cielo por no llevarme a mi

   Am7         D/Bm            Cadd9    Dsus4  D
 -----------------------------------------3----2--------------
 -----------------------------------------3----3--------------
 -----------------------------------------2----2--------------
 -----------------------------------------0----0--------------
 -------------------------------------------------------------
 -------------------------------------------------------------
   tan injusta fue la vida por engañarme asi.....llevame al 


[coro]

  G      D/F#    Em7
..cielo, tiempo, dejame verla como la recuerdo en mis

  Cadd9  D/Bm    Am7                 Dsus
  sueño, tiempo, no me separes ni un solo momento
 

 G       D/F#    Em7      
  cielo, tiempo, todo daria por verla de nuevo

 Cadd9    D/Bm    Am7                D7
  te pido tiempo, tu la arrancaste y te la llevaste de mi


[pre-coro]

   Am7            D/Bm              Cadd9         Dsus
   tan injusto ha sido el cielo por no llevarme a mi

   Am7         D/Bm            Cadd9    Dsus4  D
   tan injusta fue la vida por engañarme asi.....llevame al 


[coro]

  G      D/F#    Em7
 -3------2-------0----------------------------------------
 -3------3-------3----------------------------------------
 -0------2-------0----------------------------------------
 -0------0-------2----------------------------------------
 -2--------------2----------------------------------------
 -3------2-------0----------------------------------------
..cielo, tiempo, dejame verla como la recuerdo en mis

  Cadd9  D/Bm    Am7                 Dsus
 -0------0-------0-------------------0--------------------
 -3------3-------1-------------------3--------------------
 -0------2-------0-------------------2--------------------
 -2------0-------2-------------------0--------------------
 -3------2-------0----------------------------------------
 ---------------------------------------------------------
  sueño, tiempo, no me separes ni un solo momento
 
 G       D/F#    Em7      
  cielo, tiempo, todo daria por verla de nuevo

 Cadd9    D/Bm    Am7                D7
  te pido tiempo, tu la arrancaste y te la llevaste de mi


[final]

  Cmaj7                      Bm7                Em                   F
 ----7-8-5-7-3-5-2-3-0-2-3-5------(5)(3)-------(7)---(10)----(8)-(7)-----------
 ----------------------------3-----------(3)-------(8)--------------(8)--------
 --7---------------------------------------------------------------------------
 ------------------------------------------------------------------------------
 ------------------------------------------------------------------------------
 ------------------------------------------------------------------------------ [disminua lentamente]

Fuente original: LaCuerda
Colaborador original: Argenis [incubusx8@msn.com]
Calificar esta versión:
Aviso: Este fichero es trabajo propio de su transcriptor y representa su interpretación personal de la canción. El material contenido en esta página es para exclusivo uso privado, por lo que se prohibe su reproducción o retransmisión, así como su uso para fines comerciales.
Más versiones de Llevame Al Cielo, Aleks Syntek
Llevame Al Cielo
acordes
Llevame Al Cielo
tablatura
Descubre más canciones de Aleks Syntek