Llename De Ti, Aleks Syntek (tablatura)

Autor: Anónimo | 19830 visualizaciones

NOTA: toda la cancion se toca con el CAPO en el primer traste,
bueno, para no tener que hacer todos los acordes sostenidos.


INTRO: [piano]

   [D]      [Em7]     [Cadd9]   [G]     [D/G]
e--2---2---------2-----0---2-----3---3-3-2-2-----
B--3---3-----3---3-----3---3-----3---3-3-3-3-----
G--2---2-----0---0-----0---0-----0---0-0-0-0----- 
D--0---0--0--2---2--0--2---2--0--0---0-0-0-0----- 
A---------0--2---2--0--3---3--0--2--------------- 
E--------------------------------3--------------- [2x]
 

VERSO: [continua el riff]

Llenos de amor seguimos andando
tan llenos de amor, apunto de estallar
                                       eBGDAE
                                      [031220]
D          C                 Bm7       E7
sufrimos heridas logrando vencer al fracaso


PRE-CORO:

  B5        Bm              Bm+7            Bm7     E7
 -----------2-----2---------2-----2---------2-----2---------0-----------0------0-0-0-----
 -----------3-----3---------3-----3---------3-----3---------3-----------3------3-3-3-----
 -4-4-4-4-4-4-4-4-4-3-3-3-3-3-3-3-3-2-2-2-2-2-2-2-2-1-1-1-1-1-1-1-1-1---1--1-1-1-1-1-----
 -4-4-4-4-4-4-4-4-4-4-4-4-4-4-4-4-4-4-4-4-4-4-4-4-4-2-2-2-2-2-2-2-2-2---2--2-2-2-2-2-----
 -2-2-2-2-2-2-2-2-2-2-2-2-2-2-2-2-2-2-2-2-2-2-2-2-2-2-2-2-2-2-2-2-2-2------2-2----------
 ---------------------------------------------------0-0-0-0-0-0-0-0-0------0-0----------

                 [23342x]
   Bm             Bm+7
Y ahora estas tan escencial
                            [031020]
Bm7                          E7
   te has convertido en mi necesidad


CORO: NOTA: puedes tocar D/G o tambien se escucha bien Gmaj7 [2345x3]
                               tambien el Gm (sol menor) se escucha bien Gm6[0330x3]
[2300x3]              
 D/G                   Gm
 Llename de amor, llename de ti 
 D                   Cadd9
 eres bendicion eres para mi
 D/G             Gm
 dame caridad iluminame
Bm              E7
   me llenas de vida

[mismo]
 Llename de amor, llename de ti
 no voy a fallarte si estas aqui
 eres la luz de mi obscuridad
 eres eternidad

[solo] REPITE EL INTRO   D    Em7    Cadd9    G

 ----------------------------|-----5-5---7-------------|---------------------5---------
 -5/7-7-7-7-7---7p5---5------|-5/7-----7----7---5/7----|-5/7-7-7-7-7---7p5-----7------- 
 -------------------7---4-7--|----------------7-----7~-|-------------------7-----7~~---
 ----------------------------|-------------------------|-------------------------------
 ----------------------------|-------------------------|-------------------------------
 ----------------------------|-------------------------|-------------------------------

 -----5--------------------------------------- 
 -5h7--7--5p3----3--7-----10b12~~~r10--------- 
 ------------2h4------------------------------ 
 --------------------------------------------- 
 --------------------------------------------- 
 --------------------------------------------- 

VERSO: [mismos acordes con requinto de guitarra]

D          Em             C           G
 -----------------------------------------------------6b(8)~~~--------- 
 ----------------------------------------------------------------------
 --------------------------------------------5/7-7-7------------7------ 
 ---------------4h5--/7~~---------------------------------------------- 
 ---------------------------------------------------------------------- 
 ---------------------------------------------------------------------- 
llenos de amor             seguimos andando

D              Em    Cadd9         G
 -----------------------------------------12b14~~~---12p10----10-10---------
 ----------------------------------------------------------12-------10~~----
 ---------------------------------------------------------------------------
 ---------------------------------------------------------------------------
 ---------------------------------------------------------------------------
 ---------------------------------------------------------------------------
tan llenos de amor, apuntos de estallar

 D            C                 Bm7       E7
   sufrimos heridas logrando vencer al fracaso


PRE-CORO:
                 [23342x]
   Bm             Bm+7
Y ahora estas tan escencial
                            [031020]
Bm7                          E7
   te has convertido en mi necesidad


CORO:

[2300x3]
 D/G                   Gm
 Llename de amor, llename de ti 
 D                   Cadd9
 eres bendicion eres para mi
 D/G             Gm
 dame caridad iluminame
Bm              E7
   me llenas de vida

[mismo]
 Llename de amor, llename de ti
 no voy a fallarte si estas aqui
 eres la luz de mi obscuridad
 eres eternidad

FINAL:

   [D]      [Em7]     [Cadd9]   [G]     [D/G]
e--2---2---------2-----0---2-----3---3-3-2-2-----
B--3---3-----3---3-----3---3-----3---3-3-3-3-----
G--2---2-----0---0-----0---0-----0---0-0-0-0----- 
D--0---0--0--2---2--0--2---2--0--0---0-0-0-0----- 
A---------0--2---2--0--3---3--0--2--------------- 
E--------------------------------3--------------- [2x]
     (....llename de amor, llename de ti....)


Son dificiles los acordes del final,
puedes tocar los acordes D/G y Cmaj7 y no se escucha mal, 
el solo del piano tardara un poco mas y chance lo saque.


 eBGDAE
[2320x3]             [030233]
D/G                   Cmaj7
llename de amor, llename de ti

Fuente original: LaCuerda
Colaborador original: Argenis [incubusx8@msn.com]
Calificar esta versión:
Aviso: Este fichero es trabajo propio de su transcriptor y representa su interpretación personal de la canción. El material contenido en esta página es para exclusivo uso privado, por lo que se prohibe su reproducción o retransmisión, así como su uso para fines comerciales.
Más versiones de Llename De Ti, Aleks Syntek
Llename De Ti
acordes
Llename De Ti
tablatura
Descubre más canciones de Aleks Syntek