Lindas Criaturitas, Aleks Syntek (tablatura)

Autor: Anónimo | 15965 visualizaciones

[INTRO]

   E        Esus4       E*
e--0---------0----------0------------------
B--0---------5----------5------------------
G--1---------2----------4------------------
D--2---------2----------2------------------
A--2---------2----------2------------------
E--0---------0----------0------------------


[teclado opcional para guitarra]

 ------------------------------------------
 --10--9---9-------------------------------
 --------9---9---9-------------------------
 --------------9---9--7-6-7-6--------------
 -----------------------------7------------
 ------------------------------------------


[VERSO]

                   E   Esus4  E*                         E   Esus4  E*
 ya no pertenesco aqui,             buscare donde esta mejor
 tan solo quiero salir                  y asi nunca regresar......        a tu planeta


[CORO]


  F#m           A9                 G#m       C#m
 -2-------------0------------------4---------4------------------
 -2-------------2------------------4---------5------------------
 -2-------------4------------------4---------6------------------
 -4-------------2------------------6---------6------------------
 -4-------------0------------------6---------4------------------
 -2-------------x------------------4---------x------------------
  niñas bonitas lindas criaturitas quiero yo 


  F#m7             Asus2             G#m7   C#m7
 -2----------------0-----------------4-------4------------------
 -2----------------0-----------------4-------5------------------
 -2----------------2-----------------4-------4------------------
 -2----------------2-----------------4-------6------------------
 -4----------------0-----------------6-------4------------------
 -2----------------x-----------------4-------x------------------
  todas son lindas todas son bonitas para mi.


  F#sus         A6                 G#m7*     C#m*
 -0-------------2------------------0---------0------------------
 -0-------------2------------------4---------0------------------
 -2-------------2------------------4---------4------------------
 -4-------------2------------------4---------2------------------
 -4-------------0------------------x---------4------------------
 -2-------------x------------------4---------x------------------
  niñas bonitas lindas criaturitas quiero yo


  F#m7*            Amaj7             G#m     C#m               
 -2----------------4-----------------4-------4------------------
 -5----------------5-----------------4-------5------------------
 -2----------------6-----------------4-------6------------------
 -2----------------7-----------------6-------6------------------
 -4----------------0-----------------6-------4------------------
 -2----------------x-----------------4-------x------------------
  todas son lindas todas son bonitas para mi.



[INTRO]

                      E   Esus4   E*                        E    Esus4   E*   
       Yo no necesito mas,                solo eso y sere feliz.
 Se que no es mucho pedir               que sean todas para mi.             ....(a tu planeta)



[CORO]

  F#m           A9                 G#m       C#m
  niñas bonitas lindas criaturitas quiero yo 


  F#m7             Asus2             G#m7   C#m7
  todas son lindas todas son bonitas para mi.


  F#sus         A6                 G#m7*     C#m*
  niñas bonitas lindas criaturitas quiero yo


  F#m7*            Amaj7             G#m     C#m               
  todas son lindas todas son bonitas para mi.



[PUENTE]

   Dmaj7                   C#m7   Cmaj7                            Bsus4
 --5-------------------------4----3---------------------------------2-------------
 --7-------------------------5----5---------------------------------5-------------
 --6-------------------------6----4---------------------------------4-------------
 --7-------------------------6----5---------------------------------4-------------
 --5-------------------------4----3---------------------------------2-------------
 ----------------------------4--------------------------------------x-------------
     la experiencia de reconocer     cuando el alma empieza a envejecer


    Dmaj7                       C#m  Cmaj7                        B7sus4     B7
      es momento en que debo buscar        un remedio para el corazon...     quiero quiero


[esta parte se escucha detras de los acordes en el coro y el puente]
 no creo que este 99

Fuente original: LaCuerda
Colaborador original: Argenis [incubusx8@msn.com]
Calificar esta versión:
Aviso: Este fichero es trabajo propio de su transcriptor y representa su interpretación personal de la canción. El material contenido en esta página es para exclusivo uso privado, por lo que se prohibe su reproducción o retransmisión, así como su uso para fines comerciales.
Más versiones de Lindas Criaturitas, Aleks Syntek
Lindas Criaturitas
acordes
Lindas Criaturitas
tablatura
Descubre más canciones de Aleks Syntek