Historias De Danzón Y De Arrabal, Aleks Syntek (tablatura)

Autor: Anónimo | 33200 visualizaciones

Intro
    Contrabajo                                        Chelo
E----------4-4--------6-----------/-----------------------6-----------
A---3---3------6---6-----5h6-5h6-3/--3--6-----------6--6----5h6-5h6--3
D---------------------------------/--------5h6-5h6--------------------
G---------------------------------/-----------------------------------
B---------------------------------/-----------------------------------
e---------------------------------/-----------------------------------
(Son los tonos en toda la cancion)
Cm        G#            D#          A#
Hay historias que son de danzon y de arrabal,
Hay placeres que embriagan y saben a traición
En los tugurios todos los amantes
Bailan en la oscuridad.
Y en los rincones son las seducciones
Una danza de esquicita debilidad.

Intro 2

E------------------------------------
A------------------------------------
D------------------------------------
G---10------------------10-----------
B------9-11-13-11-9-11-----9--11--11-
e------------------------------------

E------------------------------------
A------------------------------------
D----------------------------------13
G--8h10------------------------13----
B--------9-11-13-11-9-11----11-------
e------------------------10----------


Hay historias de barrios y bailes de salón,
Hay pecados que dejan marcado el corazón
De rodillas mordiendo los tacones
Y en la boca lleva el alcohol.
Cm                D#
La lujuria y la alucinación
A#                  Cm
Me hacen perder el control.


Cuando el diablo me quiera llevar
Y la muerte este rodando cerca,
Cuando mi alma tenga que entregar
Historias de danzon y arrabal


Condenado por las tentaciones,
Cuando ya no tenga a quien amar
Historias de danzon y arrabal.
Hay pasiones que viven lucen de burdel
Hay amores que dejan heridas en la piel
En los suburbios todas las parejas
Tienen algo de ocultar


La lujuria y la alucinación
Me hacen perder la razón


Cuando el diablo me quiera llevar
Y la muerte este rondando cerca
Cuando mi alma tenga que entregar
Historias de danzon y arrabal.
Cuando el diablo me quiera llevar
Condenado por la tentaciones,
Cuando ya no tengo a quien amar
Historia de danzon y arrabal.


Bueno esta cancion me encanta y se la dedico a mi novia, ya tenia
rato sin enviar canciones, pero con la inspiracion de ti SANDRA,
puedo hacer lo que quuiera. TE AMO SANDRA.  Saludos a la banda
cualquier duda o comentario escribanme.
Calificar esta versión:
Aviso: Este fichero es trabajo propio de su transcriptor y representa su interpretación personal de la canción. El material contenido en esta página es para exclusivo uso privado, por lo que se prohibe su reproducción o retransmisión, así como su uso para fines comerciales.
Más versiones de Historias De Danzón Y De Arrabal, Aleks Syntek
Historias De Danzon Y De Arrabal
acordes
Historias De Danzón Y De Arrabal
tablatura
Descubre más canciones de Aleks Syntek