Bendito Tu Corazon, Aleks Syntek (tablatura)

Autor: Anónimo | 29510 visualizaciones

[intro]

   G     Dsus4  C9  G       G     Dsus4  C   G            G   D/F#
e--3-----3------3---3---|---3-----3------0---3----------------------
B--3-----3------3---3---|---3-----3------1---0----------------------
G--0-----2------0---0---|---0-----2------0---0----------------------
D--0-----0------2---0---|---0-----0------2---0----------------------
A--2------------3---2---|---2------------3---2----------------------
E--3----------------3---|--------------------3-----------(3)-(2)----


C                   D Dsus4-D    G    B7
  Estoy dispuesto a todo       y todo es

     Em7   A7    C       D           G  Dsus4  C9  G  [G D/F#]  
no pedirte nada,    nada que no seas tú....

Cadd9            D Dsus4-D        G        B7
  Tu me has dado tanto        que tanto es nada 

  Em   A7     C        D            Em   F   G   A7
para decirte,   lo que yo daría por ti .........

     
       
[coro]

        D             Emsus  Cadd9
Por eso voy a dejarte libre  para que el amor

   G                 
se vuelva más grande, 

D              Em7         C9          G
voy a quererte siempre, bendito tu corazón  [2x]



[se repite el intro]


   G     Dsus4  C9  G       G     Dsus4  C   G
 --3-----3------3---3---|---3-----3------0---3----------------------
 --3-----3------3---3---|---3-----3------1---0----------------------
 --0-----2------0---0---|---0-----2------0---0----------------------
 --0-----0------2---0---|---0-----0------2---0----------------------
 --2------------3---2---|---2------------3---2----------------------
 --3----------------3---|--------------------3-----------(3)-(2)---- 


[mismos acordes que el verso anterior]


	C    D Dsus4-D    G    B7
	Em   A7     C     D            Em   F   G   A7

	Tu me has dado tanto que tanto 
	es nada para decirte, lo que yo daría por ti .......



[se repite el coro]

        D             Emsus  Cadd9
Por eso voy a dejarte libre  para que el amor

   G                 
se vuelva más grande, 

D              Em7         C9          G
voy a quererte siempre, bendito tu corazón  [2x]
           


[el puente (tipo medio reggae)]

     D           C                     G 
 ----5----5--|---3----3-----3----3--|----3------3-------
 ----7----7--|---5----5-----5----5--|----3------3-------
 ----7----7--|---5----5-----5----5--|----4------4-------
 ------------|----------------------|--5------5---------
 --5----5----|-3----3-----3----3----|-------------------
 ------------|----------------------|-------------------  [se repite]

[no entiendo ninguna palabra que dice!]

						(raga chucu chaga chucu chaga chucu cha ?????)
...........................................

Quiero-que-sepas-que-contigo-estoy-más-vivo 
         
...........................................

Nada-mejor-en-ti-que-un-corazón-vendido. (x2) 
           

   D             C                            G
 -------------------------------------------------------
 -------------------------------------------------------
 -------------------------------------------------------
 -------------------------------------------------------
 --5---5-------3---3--------3---3----5p3--3p2-----------
 ----------5-5----------5-5-------------------3---------
           PM           PM  
	   
	(...??...??......my life)	
	Para que el amor se vuelva más grande


   D             C                            G
 -------------------------------------------------------
 -------------------------------------------------------
 -------------------------------------------------------
 --------------------------------------7p5--5p4---------
 --5---5-------3---3--------3---3---------------5-------
 ----------5-5----------5-5--------5--------------------

	(gotta love your blessed heart) 
	bendito tu corazón.



[coro]

        D             Emsus  Cadd9
Por eso voy a dejarte libre  para que el amor

   G                 
se vuelva más grande, 

D              Em7         C9          G
voy a quererte siempre, bendito tu corazón  [2x]

 
[fill]
 -------8888888--------------------------------------------
 ---------------888-666-88-66------------------------------
 -----------------------------7~~~\\\(2)---------
 ----------------------------------------------------------
 ----------------------------------------------------------
 ----------------------------------------------------------

Fuente original: LaCuerda
Colaborador original: Argenis [incubusx8@msn.com]
Calificar esta versión:
Aviso: Este fichero es trabajo propio de su transcriptor y representa su interpretación personal de la canción. El material contenido en esta página es para exclusivo uso privado, por lo que se prohibe su reproducción o retransmisión, así como su uso para fines comerciales.
Más versiones de Bendito Tu Corazon, Aleks Syntek
Bendito Tu Corazon
acordes
Bendito Tu Corazon
tablatura
Descubre más canciones de Aleks Syntek