A Veces Fui, Aleks Syntek (tablatura)

Autor: Anónimo | 18785 visualizaciones

ESTE ES EL SOLO DE GUITARRA QUE VA AL PRINCIPIO DE LA
CANCIÒN

E----10-12-------------------10-12--------------------
B-13-------12-13-10----------------12-13-10-----------
G-------------------12-10-12----------------12-10-----
D-------------------------------------------------10--
A-----------------------------------------------------
E-----------------------------------------------------


E-10-12-------------------10-12-----------------------
B-------12-13-10----------------12-13-10--------------
G----------------12-10-12----------------12-10--------
D----------------------------------------------10-----
A-----------------------------------------------------
E-----------------------------------------------------

ESTE ES EL SOLO DE GUITARRA QUE VA A LA MITAD DE LA
CANCIÓN

E------------------------------------------------------
B-5-------------5-5-8-------5-------------6-6-5-5------
G---7-5---5---5-------5---5---7-5---5---5---------5---5
D-------7---7-----------7---------7---7-------------7--
A------------------------------------------------------
E------------------------------------------------------


E-12-10----------------12-12-15----------
B-------13-10-13-10-13----------13-10-13-
G----------------------------------------
D----------------------------------------
A----------------------------------------
E----------------------------------------


E-12-10----------------------------------
B-------13-10-13-10-13-------------------
G----------------------------------------
D----------------------------------------
A----------------------------------------
E----------------------------------------

DISFRUTEN LOS SOLOS DE GUITARRA DE ESTA CANCIÓN

Fuente original: LaCuerda
Colaborador original: Mixtik Balam Vizuet Monroy [jaguar_aztlan@hotmail.com]
Calificar esta versión:
Aviso: Este fichero es trabajo propio de su transcriptor y representa su interpretación personal de la canción. El material contenido en esta página es para exclusivo uso privado, por lo que se prohibe su reproducción o retransmisión, así como su uso para fines comerciales.
Más versiones de A Veces Fui, Aleks Syntek
A Veces Fui
acordes
A Veces Fui (ver 2)
acordes
A Veces Fui
tablatura
Descubre más canciones de Aleks Syntek