Corazon Partio, Alejandro Sanz (tablatura)

Autor: Anónimo | 15471 visualizaciones

Esta solo es una parte de la cancion, en algunas partes les pongo la 
letra para que no se pierdan.




    Ya  lo vez que nohay  dossin tres
e|--5--5--5---3—-1-----3/5--5--3-1-3/5-5-5-3-1-3-5-5-----------------|
b|---------------------------------------------------4/8-4/8-8-------|
g|-------------------------------------------------------------------|
d|-------------------------------------------------------------------|
a|-------------------------------------------------------------------|
e|-------------------------------------------------------------------|

  pe ro  mien te meaun                         no so trosdos 
e|-------------------------------5-----8--6--5-----6--5--5--3--1--3---|
b|-------------1-----3-----5--------8-----------8---------------------|
g|-0--2--3--2-----3-----5-----7---------------------------------------|
d|--------------------------------------------------------------------|
a|--------------------------------------------------------------------|
e|--------------------------------------------------------------------|
  

  ta cion  ca sa lelsolniexis teltiem po niel do lor lle va  me 
e|-5--5--3--1--3--5--5--5--10--5--10--13--12--10--8--10--10--10-------|
b|--------------------------------------------------------------------|
g|--------------------------------------------------------------------|
d|--------------------------------------------------------------------|
a|--------------------------------------------------------------------|
e|--------------------------------------------------------------------|

- si quieres a  per der  a  nin gun 
e|-6--8--10--12--12--12--12--10--8--8--8--5--6--8--10--8--6--5-----|
b|-----------------------------------------------------------------|
g|-----------------------------------------------------------------|
d|-----------------------------------------------------------------|
a|-----------------------------------------------------------------|
e|-----------------------------------------------------------------|





   Ya lo se que co razonque     es corazon 
e|--5--5--5—-5 -3—-1--3/5--5—-5--5--3-1-3/5-5-5-5-3-1-3/5-5-5-3-3----|
b|-------------------------------------------------------------------|
g|-------------------------------------------------------------------|
d|-------------------------------------------------------------------|
a|-------------------------------------------------------------------|
e|-------------------------------------------------------------------|

  pe ro sa bes                                       do lor      eren
e|-------------------------------5-----8--6--5-----6--5--5--3-1-—3/5--|
b|-------------1-----3-----5--------8-----------8---------------------|
g|-0--2--3--2-----3-----5-----7---------------------------------------|
d|--------------------------------------------------------------------|
a|--------------------------------------------------------------------|
e|--------------------------------------------------------------------|
  



  ti quefuede lailucion y  de lo  be llo ques vi vir pa ra que me
e|-5--5--3--1--3--5--5--5--10--5--10--13--12--10--8—-8--8--10--10-----|
b|--------------------------------------------------------------------|
g|--------------------------------------------------------------------|
d|--------------------------------------------------------------------|
a|--------------------------------------------------------------------|
e|--------------------------------------------------------------------|

  cu ras te cuandoesta bahe ri  do sihoyme de jasde nue voel
e|10--10--6--8--10--12--12--12--12--12--10--8--8--8--8--5---6-8-10-8-6-5|
b|----------------------------------------------------------------------|
g|----------------------------------------------------------------------|
d|----------------------------------------------------------------------|
a|----------------------------------------------------------------------|
e|----------------------------------------------------------------------|



Cualquier duda o comentario mandenmelo a wolfenstein_7@hotmail.com

Fuente original: LaCuerda
Colaborador original: Luis Espinosa [wolfenstein_7@hotmail.com]
Calificar esta versión:
Aviso: Este fichero es trabajo propio de su transcriptor y representa su interpretación personal de la canción. El material contenido en esta página es para exclusivo uso privado, por lo que se prohibe su reproducción o retransmisión, así como su uso para fines comerciales.
Más versiones de Corazon Partio, Alejandro Sanz
Corazon Partio
acordes
Corazon Partio (ver 2)
acordes
Corazon Partio (ver 3)
acordes
Corazon Partio (ver 4)
acordes
Corazon Partio (ver 5)
acordes
Corazon Partio
tablatura
Descubre más canciones de Alejandro Sanz