Despues De Tí, Alejandro Lerner (tablatura)

Autor: Anónimo | 21729 visualizaciones



Diana… esta canción quedó en la historia…

INTRO
Suena 1 sola guitarra haciendo Do - Lam - Mim - Sol , con una rasgueo así:

|--------Do----------|--------Lam---------|-------Mim----------|--------Sol---------|

|-^--^---^-|-|-^-^-^-|-^--^---^-|-|-^-^-^-|-^--^---^-|-|-^-^-^-|-^--^---^-|-|-^-^-^-|
|-|--|---|-|-|-|-|-|-|-|--|---|-|-|-|-|-|-|-|--|---|-|-|-|-|-|-|-|--|---|-|-|-|-|-|-|
|-|--|---|-|-|-|-|-|-|-|--|---|-|-|-|-|-|-|-|--|---|-|-|-|-|-|-|-|--|---|-|-|-|-|-|-|
|-|--|---|-v-v-|-|-|-|-|--|---|-v-v-|-|-|-|-|--|---|-v-v-|-|-|-|-|--|---|-v-v-|-|-|-|
|-|------------------|-|------------------|-|------------------|-|------------------|
|--------------------|--------------------|--------------------|--------------------|

Antes de terminar “Sol” una guitarra comienza el bajo y una tercera realiza el siguiente punteo mientras 
la primera sigue tocando los mismos acordes:

|----3/8-8----------------10h8-8-------------10-8/7-8----------------7/3-3--------------------|
|----3/8-8-----------------8h8-8-------------10-8/7-8----------------7/3-3--------------------|
|----0----------------------------------------------------------------------------------------|
|---------------------------------------------------------------------------------------------|
|---------------------------------------------------------------------------------------------|
|---------------------------------------------------------------------------------------------|

|--------Do----------|--------Lam---------|-------Mim----------|--------Sol---------|

|-^--^---^-|-|-^-^-^-|-^--^---^-|-|-^-^-^-|-^--^---^-|-|-^-^-^-|-^--^---^-|-|-^-^-^-|
|-|--|---|-|-|-|-|-|-|-|--|---|-|-|-|-|-|-|-|--|---|-|-|-|-|-|-|-|--|---|-|-|-|-|-|-|
|-|--|---|-|-|-|-|-|-|-|--|---|-|-|-|-|-|-|-|--|---|-|-|-|-|-|-|-|--|---|-|-|-|-|-|-|
|-|--|---|-v-v-|-|-|-|-|--|---|-v-v-|-|-|-|-|--|---|-v-v-|-|-|-|-|--|---|-v-v-|-|-|-|
|-|------------------|-|------------------|-|------------------|-|------------------|
|--------------------|--------------------|--------------------|--------------------|

BAJO:     |-3--3---3-3-3-3-3-3-|--------------------|--------------------|--------------------|
            |--------------------|-5--5---5-5-5-5-5-5-|--0--0---0-0-0-0-0-0|-3--3---3-3-3-3-3-3-|


Dense cuenta que al terminar la primera parte del punteo comienza el acorde DO, luego de la segunda parte 
del punteo comienza Lam, y así sucesivamente. El baj
 antes mencionado es solo para las estrofas y el coro, Ya que el precoro y postcoro llevan uno distinto.


ESTROFAS
En las dos primeras estrofas se pueden rasguear hasta 2 guitarras y la tercera haciendo el bajo.

  C
Yo no me arrepiento,
        Am
De las cosas que he vivido,
          Em
de los sueños derramados,
          G
de las noches de sudor,


   C
De entre tantas Cosas,
         Am
Que el camino me  ha enseñado,
          Em
no hay pecado más terrible,
          G
que  no haber sentido Amor,


PRECORO
ACORDES EN EL PRECORO |--------Rem---------|--------Lam---------|--------Sol---------|--------Sol---------|

BAJO EN EL PRECORO    |-5--5---5-5-5-5-5-5-|--------------------|--------------------|--------------------|
                      |--------------------|-5--5---5-5-5-5-5-5-|-3--3---3-3-3-3-3-3-|-3--3---3-3-3-3-3-3-|

El rasgueo aquí en el precoro es el mismo como en los demás acordes.

      Dm
Que es lo que pasa,
                 Am
Si todavía estoy vivo,
              G           G
Todavía Respiro...

             Dm
Como entregarme
                      Am
de nuevo en cada suspiro,
            G                 G
Después de ti

|----3/7---------7/1-----|
|----3/7---------7/8-----|
|----0----------------------|
|---------------------------|
|---------------------------|
|---------------------------|


CORO
Los acordes y el bajo del coro son las mismas que en las estrofas.

                         C
Después de ti ya no hay nada,
|--------12------10------12----------|
|------------------------------------|
|------------------------------------|
|------------------------------------|
|------------------------------------|
|------------------------------------|



                  Am
ya no queda mas nada,
|--------12------10------12----------|
|------------------------------------|
|------------------------------------|
|------------------------------------|
|------------------------------------|
|------------------------------------|

        Em           G
Nada de nada
|------------------------------------|
|------------------------------------|
|----------------7h9--7--------------|
|------------------------------------|
|------------------------------------|
|------------------------------------|


                         C
Después de ti es el olvido,
|--------12------10------12----------|
|------------------------------------|
|------------------------------------|
|------------------------------------|
|------------------------------------|
|------------------------------------|

                 Am
un recuerdo perdido,
|--------12------10------12----------|
|------------------------------------|
|------------------------------------|
|------------------------------------|
|------------------------------------|
|------------------------------------|


        Em            G
Nada de nada.
|---------------------------------------|
|---------11h12p11h12p11h12p11/8--8-10-|
|---7h9---------------------------------|
|---------------------------------------|
|---------------------------------------|
|---------------------------------------|

POSCORO
     Dm                          Am
Como voy a llenar este espacio vacío
           G     G
Después de ti
|-------------------------------|
|-------------------------------|
|-------------------------------|
|---9h10p10x510p9--------------|
|-------------------------------|
|-------------------------------|

                       C   Am    Em   G
Como vivir después de ti.



ESTROFAS

   C                         Am
Dejare que el tiempo, cure todas las heridas
           Em
Y aunque queme por dentro,
                 G
Sé que voy a renacer


Cuando el cielo llora
Nunca nadie le pregunta dónde duele
Porque llueve, porque deja de llover


      Dm
Que es lo que pasa,
                 Am
Si todavía estoy vivo,
              G           G
Todavía Respiro...

             Dm
Como entregarme
                      Am
de nuevo en cada suspiro,
            G                 G
Después de ti

|----3/7---------7/1-----|
|----3/7---------7/8-----|
|----0----------------------|
|---------------------------|
|---------------------------|
|---------------------------|

|-------------------------------|
|-------------------------------|
|-------------------------------|
|---9h10p10x510p9--------------|
|-------------------------------|
|-------------------------------|





CORO
Los acordes y el bajo del coro son las mismas que en las estrofas.

                         C
Después de ti ya no hay nada,
|--------12------10------12----------|
|------------------------------------|
|------------------------------------|
|------------------------------------|
|------------------------------------|
|------------------------------------|



                  Am
ya no queda mas nada,
|--------12------10------12----------|
|------------------------------------|
|------------------------------------|
|------------------------------------|
|------------------------------------|
|------------------------------------|

        Em           G
Nada de nada
|------------------------------------|
|------------------------------------|
|----------------7h9--7--------------|
|------------------------------------|
|------------------------------------|
|------------------------------------|


                         C
Después de ti es el olvido,
|--------12------10------12----------|
|------------------------------------|
|------------------------------------|
|------------------------------------|
|------------------------------------|
|------------------------------------|

                 Am
un recuerdo perdido,
|--------12------10------12----------|
|------------------------------------|
|------------------------------------|
|------------------------------------|
|------------------------------------|
|------------------------------------|


        Em            G
Nada de nada.
|---------------------------------------|
|---------11h12p11h12p11h12p11/8--8-10-|
|---7h9---------------------------------|
|---------------------------------------|
|---------------------------------------|
|---------------------------------------|

POSCORO

  Dm                   Am
Debes en cuando tengo frío,
                        G
Y le pregunto a mi destino,
            Dm
Como entregarme,
                  Am
en cada nuevo suspiro,
            G    Gsus4  G
Después de ti.
                       C    Am  Em G
Como vivir después de ti(4 v)

FIN
Esta canción es muy buena en esos momentos en que se sienten 
con ganas de ahorcarse.. disfrutenla...





Calificar esta versión:
Aviso: Este fichero es trabajo propio de su transcriptor y representa su interpretación personal de la canción. El material contenido en esta página es para exclusivo uso privado, por lo que se prohibe su reproducción o retransmisión, así como su uso para fines comerciales.
Más versiones de Despues De Tí, Alejandro Lerner
Despues De Ti
acordes
Despues De Ti (ver 2)
acordes
Despues De Tí
tablatura
Despues De Tí
bajo
Despues De Ti
teclado
Despues De Ti (ver 2)
teclado
Despues De Ti
armonica
Descubre más canciones de Alejandro Lerner