Aunque No Estas, Alejandro Filio (tablatura)

Autor: Anónimo | 23473 visualizaciones



aqui ta el tab.......espero les guste................

CAPO EN EL PRIMER TRASTE

Dm/C  Fmaj7     Cmaj7     C7    G*   F    G     C     Am
   
6-x    6-1       6-x     6-x   6-3  6-1  6-3   6-0   6-x
5-3    5-3       5-3     5-3   5-2  5-3  5-2   5-3   5-0
4-0    4-3       4-2     4-2   4-0  4-3  4-0   4-2   4-2
3-2    3-2       3-0     3-3   3-0  3-2  3-0   3-0   3-2
2-3    2-0       2-0     2-1   2-0  2-1  2-3   2-1   2-1
1-1    1-0       1-0     1-0   2-0  1-1  1-3   1-0   1-0


INTRO

  C                Fmaj7          C               Fmaj7
 
6-0----------------1-------------/-0----------------1------------------
5-------3------------------------/-------3-----------------------------
4---2-------2---2----3---3---3---/---2-------2---2----3---3---3--------
3-----0------------2---2---2---2-/-----0------------2---2---2---2------
2---------0---1--------0---1---3-/---------0---1--------0---1---1h3----
1--------------------------------/-------------------------------------

  C                Fmaj7           C                  

6-0----------------1----------------0---------------------------------
5-------3-------------------------------------------------------------
4---2-------2---2----3---3---3---3----2---2---2---2-------------------
3-----0------------3---2---2---2----0---0---0---0----------------------
2---------0---1--------1---0---1--------1---0---1--------------------
1---------------------------------------------------------------------

                  C                 F               C                                              

6---------3-------------------------1---------------------------------
5------------------3--------------------------------3----------------
4-0---------0----------2--------------3---3---3---3---2---2------------
3---0---------0------0---0--------------2-------2-------0-------------
2-3-----0-1-----0--1---------3p1p0--1-------1-----------------3p1p0-----
1-----0--------------------0--------------------------------0---------

   F                C
                                  aqui comienza la letra
6--1------------------------------------
5-------------------3---------------3---
4----3---3---3---3----2---2-------------
3------2-------2--------0-------0-------
2--1-------1------------------1---1-----
1---------------------------0-----------

C                Fmaj7  G*    C(figura uno)
Desperté y el silencio supo a ti

FIG. 1

  C             Fmaj7     G*

6-0--------------1-1------3---------
5-------3---------------------------
4---2-------2--2-----3-------0------
3-----0-------0--2-----2-------0----
2---------1---------------0------0--
1-----------------------------------

C(bajo/sextacuerda)  fmaj7  G*   C (fig.2)
y al abrir la    ventana   supe mas

FIG 2  
  C                C7              F(letra)

6-0-----------------0-------0-------1--------------------
5---3---3---3---3-----3-------3--------------------------
4-----2-------2---------2-------2------------------------
3-----0---0---0-----3-----0-3-----0-2--------------------
2---------1-------------------------0--------------------
1--------------------------------------------------------

F              G         Em       Am (fig.3)
Supe que la mañana se podía recortar

Fig. 3

6----------------------
5--0-------------------
4-----2---2------------
3-------2----2---------
2------------0h1----1--
1----------------0-----

F                    G              Em         Am Fig.3
para enviarla en un sobre a donde sueles despertar
 
F               Em         Dm  Dm/C G intro/hastadiagona   
que maneras extrañas tengo paaaraaa recordar


MISMOS ACORDES
desperté y respirando comprendí
que detras de un milagro vienes tu
hace tantos inviernos que no puedo rescatar
al adios que en el tiempo nos partió por la mitad
tú del brazo del viento y yo mirándote volar

CORO
F             C
que maravilla es poder

    Dm       G*       C    C7
sentirte aunque no estas

F        G    C         
siempre supe que en el viento 

Dm    G*      C   C7
te podias quedar

F             C
que maravilla es poder

    Dm       G*       C    C7
sentirte aunque no estas 

F        G    C
siempre supe que en el viento

Dm    G*      C  (Fig.4)
te podías quedar

FIG. 4

  C
quedaaaaaaaaaaaaaaaaaaaaaarrrr  
6-----------------0------------------------3-----------------------
5-3------------------------------------------------3---------------
4---2---2---2---2---2---2---2---2--0---------0--------0---0---0----
3-0---0---0---0----------------------0---------0------------0---0--
2-----1---0---1---1---1---0---1----3-----0-1-----0-1----1---3---1--
1--------------------------------------0----------------0----------

  Fmaj7            C                             
                                                                                   
6-1----------------0------------------------3-------
5---------------------------------------------------
4---3---3---3---3----2---2---2---2--0---------0-----
3-2---2---2---2----0---0---0---0------0---------0---
2-----1---0---1--------1---0---1----3-----0-1-----0-
1---------------------------------------0-----------
toca lo de arriba y luego el intro hasta las diagonales


C                Fmaj7  G*   C (fig.1)
las historias hermosas son así

C               Fmaj7  G*     C (fig.2)       
nos prometen de lejos ser verdad

F               G              Em         Am(fig.3)
le pedimos al tiempo que les traiga por acá

F                   G          Em         Am (fig.3)
y al final en un sueño suelen ser casualidad

F                Cmaj7     Dm    Dm/C    C
a la vuelta del corazón volvemos a empezar

MISMOS ACORDES

como nube la dicha nos llovió
sin saber hasta donde caminar
ya tu mundo pequeño le inventaba una canción
delicada y perfecta como alma de caracol
tu dormiste y la luz despues del dia nos cegó

CORO

FIG.4


FINAL


6--0---------------0---------------------0--
5----------------------------------------3--
4----2---2---2---2---2---2---2---2----------
3------0---------------0-----------------0--
2----------0---1-----------0---1---------0--
1-------------------------------------------

ESPERO LES GUSTE LA TRANSCRIPCION.......ESTA MUY ACERTADA.....SOLAMENTE METANLE 
ADORNOS AL MOMENTO DE ACOMPAÑAR Y NO TENDRAN PROBLEMA CON ESTA SUPER ROLA
CUALQUIER DUDA SUGERENCIA O CUALQUIER COSA.....AY TA MI CORREO

Fuente original: LaCuerda
Colaborador original: Miguel García [raekwon09@hotmail.com]





Calificar esta versión:
Aviso: Este fichero es trabajo propio de su transcriptor y representa su interpretación personal de la canción. El material contenido en esta página es para exclusivo uso privado, por lo que se prohibe su reproducción o retransmisión, así como su uso para fines comerciales.
Más versiones de Aunque No Estas, Alejandro Filio
Aunque No Estas
acordes
Aunque No Estas
tablatura
Descubre más canciones de Alejandro Filio