Aleluya (tu Amor Me Hace Cantar), Alejandro Del Bosque (tablatura)

Autor: Anónimo | 21235 visualizaciones

INTRO / aquí antes de llegar al 10 arrastras el dedo desde el 8
E ------------------------------------------------
A -10---------------9--10---12-----------------10-
G -----12--9--7--9----------------12--9--7--9-----
D ------------------------------------------------
B ------------------------------------------------
e ------------------------------------------------

E ------------------------------------------------------
A --------------9-10-----------------10---10-9-7--9--7--
G -12--9--7--9------9--7----7--9--7-----7---------------
D ------------------------------------------------------
B ------------------------------------------------------
e ------------------------------------------------------

                G                    Cadd2
Tu amor es asombroso firme y nunca cambia
               G/B                Cadd2
Tu amor es la roca y sobre ella estoy
                  G               Cadd2
Tu amor es un misterio como me levanta
            G/B              Cadd2
Cuando me rodea me sostenes Dios

Coro:
      G
//Aleluya
      Dadd2
  Aleluya
     Em7
  Aleluya
    Cadd2
Tu amor me hace cantar//

                   G                Cadd2
Tu amor es sorprendente y tal y diferente
             G/B               Cadd2
Que va en aumento muy dentro de mí
                  G                  Cadd2
Y cuando estoy contigo tu bondad me llena
               G/B                Cadd2
Siento que un canto se levante en mí.


Bueno después pongo el requinto del medio
Y los rifs que hace en 2ª guitarra.
Que la disfruten Dios los Bendiga.
Calificar esta versión:
Aviso: Este fichero es trabajo propio de su transcriptor y representa su interpretación personal de la canción. El material contenido en esta página es para exclusivo uso privado, por lo que se prohibe su reproducción o retransmisión, así como su uso para fines comerciales.
Más versiones de Aleluya (tu Amor Me Hace Cantar), Alejandro Del Bosque
Aleluya (tu Amor Me Hace Cantar)
acordes
Aleluya (tu Amor Me Hace Cantar) (ver 2)
acordes
Aleluya (tu Amor Me Hace Cantar)
tablatura
Descubre más canciones de Alejandro Del Bosque