Al Estar Ante Tí, Alejandro Del Bosque (tablatura)

Autor: Anónimo | 20376 visualizaciones

    D         A     Em                        Bm    A
al estar ante tì adorando frente al mar de cristal
        D         A      Em                         Bm  A
entre la mulltitud  en asombro alli me abrè de postrar
         D       A       Em                  Bm    A
y en mi canto mirè a millones proclamandote Rey
      D     A         Em                Bm     A
y mi voz oiràs entre las multitudes cantar

 D              G         D
Digno es el cordero de Dios
               G     F#    Bm
el que fue inmolado en la cruz
             G      A      D
digno de la honra y el poder
          G  Em   A
la sabidurìa suya es
  D                   G             D
y al que està en el trono sea el honor
             G       F#     Bm
santo santo santo es el Señor
              G       A     D
reina por los siglos con poder
              G    Bm      C    A
todo lo que existe es por El

solo de guitarra electrica
e||------------10--9----------|---------------------------|
B||--7--8--10-------------12--|--------10-12-10-----------|
G||---------------------------|---------------------------|
D||---------------------------|---------------------------|
A||---------------------------|---------------------------|
E||---------------------------|---------------------------|

------------10------------9--|-----9--10------------||
--7--8--10------12----12-----|----------------------||
-----------------------------|----------------------||
-----------------------------|----------------------||
-----------------------------|----------------------||
-----------------------------|----------------------||

Final:

              G       A     D
reina por los siglos con poder
              G    Bm      C
todo lo que existe es por El
              G    A       D
todo lo que existe es por El
Calificar esta versión:
Aviso: Este fichero es trabajo propio de su transcriptor y representa su interpretación personal de la canción. El material contenido en esta página es para exclusivo uso privado, por lo que se prohibe su reproducción o retransmisión, así como su uso para fines comerciales.
Más versiones de Al Estar Ante Tí, Alejandro Del Bosque
Al Estar Ante Tí
acordes
Al Estar Ante Tí (ver 2)
acordes
Al Estar Ante Tí
tablatura
Descubre más canciones de Alejandro Del Bosque