Hey Güera, Alejandra Guzmán (tablatura)

Autor: Anónimo | 43751 visualizaciones

Hola aqui les mando esta cancion, traté de sacarla lo mejor posible.
Dudas o peticiones escribanme un mail.


Intro

e ---------------------------------------
B ---------------------------------------
G ---------------------------------------
D --3-2-1-0------------------------------
A ----------4-3-2-1-0--------------------
E --------------------4-3-2-1-2-3-4------

e -----------1-------1----------------------1--------1-----1-1--
B -----------1-------1----------------------1--------1-----1-1--
G --------------------------------------------------------------
D --3------------3---------------3--------------3---------------
A --3------------3-----------3s5----------------3---------------
E --1------------1---------1-------3--1---------1---------------
                           *  Riff 1  *

F          Riff 1
Hey guera
                                    Am       Riff 2
como te vuelva a ver de mariposa rondándolo

  Riff 2
D ------------------------*
A --7---7s5---5s3----3----*
E --5---5s3---3s1----1----*

F          Riff 1
Hey guera
                                      Am
ten cuidado porque voy y te armo un escándalo

G                                Riff 3
No te atrevas a insinuarte ni de broma

  Riff 3
D --7------------------------*
A --5----7---7----5s7---7----*
E -------5---5----3s5---5----*

G                                 F                    Riff 4
te lo advierto punto en boca o te monto la de Troya

  Riff 4
D ------------------*
A --7---7s5----3----*
E --5---5s3----1----*

F          Riff 1
Hey guera
                                        Am       Riff 2
sé que sueñas morder su corazón tierno arándano
F          Riff 1
Despierta
                                    Am
nunca permitiré que vengas aquí a robármelo

G                        Riff 3
Peleando como gata boca arriba
G                                F                    G
mientras que me quede viva nadie nadie me lo quita

  Coro
D --------------------------------------------------------------------
A --3-----1---1-2-3------1---1h3--------------------------------------
E ------3---3----------3---3-------5----5-3h5-3h5---5---5-5p3--3------

D --------------------------------------------------------------------
A --3-----1---1-2-3------1---1h3--------------------------------------
E ------3---3----------3---3-------5----5-3h5-3h5---5---5-5-5-5-5--3--

Me siento loca por él, estoy tan loca por él

que soy capaz de morder para defender su amor

Me siento loca por él, loca tan loca por él

que no me importa poner la carne en el asador

e ---------------------------------------
B ---------------------------------------
G ---------------------------------------
D --3-2-1-0------------------------------
A ----------4-3-2-1-0--------------------
E --------------------4-3-2-1-2-3-4------


F          Riff 1
Hey guera
                                             Am           Riff 2
ni te acerques porque te corto el pelo en un dos por tres
F          Riff 1
Hey guera
                                     Am
no me gusta perder y si es preciso pelearé

G                              Riff 3
Puede ser que sea celosa y posesiva
G                              F                   G
pero mientras tenga vida nadie nadie me lo quita


  Coro
D º------------------------------------------------------------------º
A º-3-----1---1-2-3------1---1h3-------------------------------------º
E  -----3---3----------3---3-------5----5-3h5-3h5---5---5-5p3--3-----


Se que estoy loca lo se, loca tan loca por él

que soy capaz de morder para defender su amor

Me siento loca por él, loca tan loca por él

que no me importa poner el alma en el asador


Sax solo: (esto hace la guitarra)

D º------------------------------------------------------------------º
A º-3-----1---1-2-3------1---1h3-------------------------------------º
E  -----3---3----------3---3-------5----5-3h5-3h5---5---5-5p3--3-----

Se repite el coro



El acrode de G suena mejor con esta posición (sin tercera)

e --3--*
B --3--*
G --0--*
D --0--*
A --X--*
E --3--*
Calificar esta versión:
Aviso: Este fichero es trabajo propio de su transcriptor y representa su interpretación personal de la canción. El material contenido en esta página es para exclusivo uso privado, por lo que se prohibe su reproducción o retransmisión, así como su uso para fines comerciales.
Más versiones de Hey Güera, Alejandra Guzmán
Hey Güera
acordes
Hey Güera
tablatura
Hey Güera
bajo
Descubre más canciones de Alejandra Guzmán