Hacer El Amor Con Otro, Alejandra Guzmán (tablatura)

Autor: Anónimo | 30653 visualizaciones

|----------7h9-9-9-9p7-7-74-4-4-4-------2----
|----------7---7-7-7---7-74-4-4-4-------4----
|----------------------------------4-----4----
|------------------------------------4---4----
|----------------------------------------2----
|---7------------------------------------2----


|-----------
|-----------
|-----------LUEGO SE REPITE DE NUEVO LA PRIMERA PARTE
|-----------
|-----0-----
|---2---7---

ESTA ES LA PARTE DONDE EMPIEZA A CANTAR...

|------------|-------0---X--|-----------2--|-------0---
|-------4----|-------4---4--|-------0------|----------0
|---------4--|-----4-----4--|---------1----|-----1----1
|-----4------|---4-------4--|-----2--------|---2------2
|---2--------|-2---------2--|---2----------|-2---------
|------------|-----------2--|--------------|-----------


|------1-----|-------0------|------0------0|-------0-----2
|------------|--------------|--------------|-------------4
|------------|-----0--------|----1---------|---1-----1/4-4
|----3-------|--------------|--------------|-----2---2/4-4
|--3------3-2|--0-----------|--2------2-0--|-2------------
|------------|--------------|--------------|--------------


|------------|------------------|----------|--------0----
|------4-----|------------------|------0---|-------------
|------------|------------------|--------1-|----1--------
|----4-------|-------6-6-----8--|----2-----|------2---2-1
|--2-----1---|-2-2-2-4-4-2-2-6-4|--2-------|--2-------2-2
|------------|------------------|----------|-------------


|------1-----|------0-----0-----|-----0-------0|-------0---2
|------------|------------------|--------------|-----------2
|------------|----0-------------|---0-------0--|---1-------3
|----3-------|------------------|--------------|-----2---2/4
|--3-----3-2-|--2-----2-1-------|-2-----2-1----|-2---------4
|------------|--------------3-2-|--------------|-----------2
Calificar esta versión:
Aviso: Este fichero es trabajo propio de su transcriptor y representa su interpretación personal de la canción. El material contenido en esta página es para exclusivo uso privado, por lo que se prohibe su reproducción o retransmisión, así como su uso para fines comerciales.
Más versiones de Hacer El Amor Con Otro, Alejandra Guzmán
Hacer El Amor Con Otro
acordes
Hacer El Amor Con Otro (ver 2)
acordes
Hacer El Amor Con Otro
tablatura
Hacer El Amor Con Otro
teclado
Descubre más canciones de Alejandra Guzmán