Día De Suerte, Alejandra Guzmán (tablatura)

Autor: Anónimo | 25208 visualizaciones

INTRO: D,F#m,G,Bb,A

D                  F#m
Tengo Un Pobre Corazon
                   G               Bb        A
Que A Veces Se Rompio Se Apago Pero Nunca Se Rindio

D                   F#m               G
Entre Estrellas De Carton Perdi La Ilucion
       Bb                        C            A
Que Llegara Un Angel Me Levante Que Me Pida Que Lo Ame

                      D
Y De Pronto Un Dia De Suerte
               F#m
Se Me Hizo Conocerte
         G
Y Te Cruzaste En Mi Camino
       Gm            A
Ahora Creo En El Destino
    D        F#m        G
Tenerte por siempre Conmigo
          Bm                 A
Pero mas suerte es quererte tanto
                   D
Que tu sientas lo mismo

E--------------------------------------------
B--------------------------------------------
G------6(V)----------------------------------
D--------------------------------------------
A--------------------------------------------
E--------------------------------------------


D                   F#m
Dicen Que este loco Amor
              G
No Tiene Solucion

E-----------------------------------
B-----------------------------------
G----7-9(V)--9-7--------------------
D--7------------------=-------------
A-----------------------------------
E-----------------------------------

       Bb          A      D
Que Tu Mundo En Mi Mundo No
                  F#m
Que Tu Mundo y Mi Mundo No

D                    F#m               G
Entre Estrellas De Carton Perdi La Ilucion

E----------------------------------------------
B-----10----10/12-------15---------------------
G--------11----------------15------------------
D-------------------------=--------------------
A----------------------------------------------
E----------------------------------------------

       Bb                        C                  A
Que Llegara Un Angel Me Levante Que Me Pida Que Lo Ame


                      D
Y De Pronto Un Dia De Suerte
               F#m
Se Me Hizo Conocerte
         G
Y Te Cruzaste En Mi Camino
       Gm            A
Ahora Creo En El Destino
    D        F#m        G
Tenerte por siempre Conmigo
          Bm                 A
Pero mas suerte es quererte tanto
                   G
Que tu sientas lo mismo

SOLO:
E--------------------------------------------------------
B---11(B)-11(B)-11(B)------------------------------------
G----------------------14-11-14--11-9----14-11-14--11-9--
D--------------------------------------------------------
A--------------------------------------------------------
E--------------------------------------------------------

E--------------------------------------------------------
B--------------------------------------------------------
G---11-12-14--12-11-10-12-11-10---------7-9-11-----------
D-------------------------------12-------------9---------
A--------------------------------------------------------
E--------------------------------------------------------

E--------------------------------------------------------
B--------------------------------------------------------
G---7---9(B)-9(B)-9(B)-9-7-9-----------------------------
D-----9----------------------7-7-------------------------
A--------------------------------------------------------
E--------------------------------------------------------



Y De Pronto Un Dia De Suerte
               F#m
Se Me Hizo Conocerte
         G
Y Te Cruzaste En Mi Camino
       Gm            A
Ahora Creo En El Destino
    D        F#m        G
Tenerte por siempre Conmigo
          Bm                 A
Pero mas suerte es quererte tanto

          G                    A
pero mas suerte es quererte tanto
                        G,Gm,D
y que tu sientas lo mismo


(v): VIBRATO
(B):BEND UP


DUDAS O COMENTARIOS A LUIS.5999@HOTMAIL.COM

THE ROCKER***
Calificar esta versión:
Aviso: Este fichero es trabajo propio de su transcriptor y representa su interpretación personal de la canción. El material contenido en esta página es para exclusivo uso privado, por lo que se prohibe su reproducción o retransmisión, así como su uso para fines comerciales.
Más versiones de Día De Suerte, Alejandra Guzmán
Dia De Suerte
acordes
Día De Suerte
tablatura
Descubre más canciones de Alejandra Guzmán